ISO-10303-21;
HEADER;
/* Generated by software containing ST-Developer
 * from STEP Tools, Inc. (www.steptools.com) 
 */

FILE_DESCRIPTION(
/* description */ (''),
/* implementation_level */ '2;1');

FILE_NAME(
/* name */ 'C:/Users/capra/Desktop/Sharplayers_8596531012206.step',
/* time_stamp */ '2022-01-21T17:42:22+01:00',
/* author */ (''),
/* organization */ (''),
/* preprocessor_version */ 'ST-DEVELOPER v18.1',
/* originating_system */ 'Autodesk Translation Framework v10.10.0.1391',

/* authorisation */ '');

FILE_SCHEMA (('AUTOMOTIVE_DESIGN { 1 0 10303 214 3 1 1 }'));
ENDSEC;

DATA;
#10=MECHANICAL_DESIGN_GEOMETRIC_PRESENTATION_REPRESENTATION('',(#13),#333);
#11=SHAPE_REPRESENTATION_RELATIONSHIP('SRR','None',#340,#12);
#12=ADVANCED_BREP_SHAPE_REPRESENTATION('',(#14),#332);
#13=STYLED_ITEM('',(#349),#14);
#14=MANIFOLD_SOLID_BREP('Body1',#197);
#15=FACE_BOUND('',#41,.T.);
#16=FACE_BOUND('',#49,.T.);
#17=FACE_BOUND('',#51,.T.);
#18=PLANE('',#217);
#19=PLANE('',#218);
#20=PLANE('',#219);
#21=PLANE('',#220);
#22=PLANE('',#221);
#23=PLANE('',#222);
#24=PLANE('',#223);
#25=PLANE('',#224);
#26=PLANE('',#225);
#27=FACE_OUTER_BOUND('',#38,.T.);
#28=FACE_OUTER_BOUND('',#39,.T.);
#29=FACE_OUTER_BOUND('',#40,.T.);
#30=FACE_OUTER_BOUND('',#42,.T.);
#31=FACE_OUTER_BOUND('',#43,.T.);
#32=FACE_OUTER_BOUND('',#44,.T.);
#33=FACE_OUTER_BOUND('',#45,.T.);
#34=FACE_OUTER_BOUND('',#46,.T.);
#35=FACE_OUTER_BOUND('',#47,.T.);
#36=FACE_OUTER_BOUND('',#48,.T.);
#37=FACE_OUTER_BOUND('',#50,.T.);
#38=EDGE_LOOP('',(#136,#137,#138,#139));
#39=EDGE_LOOP('',(#140,#141,#142,#143));
#40=EDGE_LOOP('',(#144));
#41=EDGE_LOOP('',(#145));
#42=EDGE_LOOP('',(#146,#147,#148,#149));
#43=EDGE_LOOP('',(#150,#151,#152,#153));
#44=EDGE_LOOP('',(#154,#155,#156,#157));
#45=EDGE_LOOP('',(#158,#159,#160,#161));
#46=EDGE_LOOP('',(#162,#163,#164,#165));
#47=EDGE_LOOP('',(#166,#167,#168,#169));
#48=EDGE_LOOP('',(#170,#171,#172,#173,#174,#175));
#49=EDGE_LOOP('',(#176));
#50=EDGE_LOOP('',(#177,#178,#179,#180,#181,#182));
#51=EDGE_LOOP('',(#183));
#52=LINE('',#283,#72);
#53=LINE('',#289,#73);
#54=LINE('',#295,#74);
#55=LINE('',#297,#75);
#56=LINE('',#299,#76);
#57=LINE('',#300,#77);
#58=LINE('',#303,#78);
#59=LINE('',#305,#79);
#60=LINE('',#306,#80);
#61=LINE('',#309,#81);
#62=LINE('',#311,#82);
#63=LINE('',#312,#83);
#64=LINE('',#315,#84);
#65=LINE('',#317,#85);
#66=LINE('',#318,#86);
#67=LINE('',#321,#87);
#68=LINE('',#323,#88);
#69=LINE('',#324,#89);
#70=LINE('',#326,#90);
#71=LINE('',#327,#91);
#72=VECTOR('',#232,3.5);
#73=VECTOR('',#239,2.5);
#74=VECTOR('',#246,10.);
#75=VECTOR('',#247,10.);
#76=VECTOR('',#248,10.);
#77=VECTOR('',#249,10.);
#78=VECTOR('',#252,10.);
#79=VECTOR('',#253,10.);
#80=VECTOR('',#254,10.);
#81=VECTOR('',#257,10.);
#82=VECTOR('',#258,10.);
#83=VECTOR('',#259,10.);
#84=VECTOR('',#262,10.);
#85=VECTOR('',#263,10.);
#86=VECTOR('',#264,10.);
#87=VECTOR('',#267,10.);
#88=VECTOR('',#268,10.);
#89=VECTOR('',#269,10.);
#90=VECTOR('',#272,10.);
#91=VECTOR('',#273,10.);
#92=CIRCLE('',#212,3.5);
#93=CIRCLE('',#213,3.5);
#94=CIRCLE('',#215,2.5);
#95=CIRCLE('',#216,2.5);
#96=VERTEX_POINT('',#280);
#97=VERTEX_POINT('',#282);
#98=VERTEX_POINT('',#286);
#99=VERTEX_POINT('',#288);
#100=VERTEX_POINT('',#293);
#101=VERTEX_POINT('',#294);
#102=VERTEX_POINT('',#296);
#103=VERTEX_POINT('',#298);
#104=VERTEX_POINT('',#302);
#105=VERTEX_POINT('',#304);
#106=VERTEX_POINT('',#308);
#107=VERTEX_POINT('',#310);
#108=VERTEX_POINT('',#314);
#109=VERTEX_POINT('',#316);
#110=VERTEX_POINT('',#320);
#111=VERTEX_POINT('',#322);
#112=EDGE_CURVE('',#96,#96,#92,.T.);
#113=EDGE_CURVE('',#96,#97,#52,.T.);
#114=EDGE_CURVE('',#97,#97,#93,.T.);
#115=EDGE_CURVE('',#98,#98,#94,.T.);
#116=EDGE_CURVE('',#98,#99,#53,.T.);
#117=EDGE_CURVE('',#99,#99,#95,.T.);
#118=EDGE_CURVE('',#100,#101,#54,.T.);
#119=EDGE_CURVE('',#100,#102,#55,.T.);
#120=EDGE_CURVE('',#103,#102,#56,.T.);
#121=EDGE_CURVE('',#101,#103,#57,.T.);
#122=EDGE_CURVE('',#101,#104,#58,.T.);
#123=EDGE_CURVE('',#105,#103,#59,.T.);
#124=EDGE_CURVE('',#104,#105,#60,.T.);
#125=EDGE_CURVE('',#104,#106,#61,.T.);
#126=EDGE_CURVE('',#107,#105,#62,.T.);
#127=EDGE_CURVE('',#106,#107,#63,.T.);
#128=EDGE_CURVE('',#106,#108,#64,.T.);
#129=EDGE_CURVE('',#109,#107,#65,.T.);
#130=EDGE_CURVE('',#108,#109,#66,.T.);
#131=EDGE_CURVE('',#108,#110,#67,.T.);
#132=EDGE_CURVE('',#111,#109,#68,.T.);
#133=EDGE_CURVE('',#110,#111,#69,.T.);
#134=EDGE_CURVE('',#110,#100,#70,.T.);
#135=EDGE_CURVE('',#102,#111,#71,.T.);
#136=ORIENTED_EDGE('',*,*,#112,.F.);
#137=ORIENTED_EDGE('',*,*,#113,.T.);
#138=ORIENTED_EDGE('',*,*,#114,.F.);
#139=ORIENTED_EDGE('',*,*,#113,.F.);
#140=ORIENTED_EDGE('',*,*,#115,.F.);
#141=ORIENTED_EDGE('',*,*,#116,.T.);
#142=ORIENTED_EDGE('',*,*,#117,.F.);
#143=ORIENTED_EDGE('',*,*,#116,.F.);
#144=ORIENTED_EDGE('',*,*,#112,.T.);
#145=ORIENTED_EDGE('',*,*,#115,.T.);
#146=ORIENTED_EDGE('',*,*,#118,.F.);
#147=ORIENTED_EDGE('',*,*,#119,.T.);
#148=ORIENTED_EDGE('',*,*,#120,.F.);
#149=ORIENTED_EDGE('',*,*,#121,.F.);
#150=ORIENTED_EDGE('',*,*,#122,.F.);
#151=ORIENTED_EDGE('',*,*,#121,.T.);
#152=ORIENTED_EDGE('',*,*,#123,.F.);
#153=ORIENTED_EDGE('',*,*,#124,.F.);
#154=ORIENTED_EDGE('',*,*,#125,.F.);
#155=ORIENTED_EDGE('',*,*,#124,.T.);
#156=ORIENTED_EDGE('',*,*,#126,.F.);
#157=ORIENTED_EDGE('',*,*,#127,.F.);
#158=ORIENTED_EDGE('',*,*,#128,.F.);
#159=ORIENTED_EDGE('',*,*,#127,.T.);
#160=ORIENTED_EDGE('',*,*,#129,.F.);
#161=ORIENTED_EDGE('',*,*,#130,.F.);
#162=ORIENTED_EDGE('',*,*,#131,.F.);
#163=ORIENTED_EDGE('',*,*,#130,.T.);
#164=ORIENTED_EDGE('',*,*,#132,.F.);
#165=ORIENTED_EDGE('',*,*,#133,.F.);
#166=ORIENTED_EDGE('',*,*,#134,.F.);
#167=ORIENTED_EDGE('',*,*,#133,.T.);
#168=ORIENTED_EDGE('',*,*,#135,.F.);
#169=ORIENTED_EDGE('',*,*,#119,.F.);
#170=ORIENTED_EDGE('',*,*,#134,.T.);
#171=ORIENTED_EDGE('',*,*,#118,.T.);
#172=ORIENTED_EDGE('',*,*,#122,.T.);
#173=ORIENTED_EDGE('',*,*,#125,.T.);
#174=ORIENTED_EDGE('',*,*,#128,.T.);
#175=ORIENTED_EDGE('',*,*,#131,.T.);
#176=ORIENTED_EDGE('',*,*,#114,.T.);
#177=ORIENTED_EDGE('',*,*,#135,.T.);
#178=ORIENTED_EDGE('',*,*,#132,.T.);
#179=ORIENTED_EDGE('',*,*,#129,.T.);
#180=ORIENTED_EDGE('',*,*,#126,.T.);
#181=ORIENTED_EDGE('',*,*,#123,.T.);
#182=ORIENTED_EDGE('',*,*,#120,.T.);
#183=ORIENTED_EDGE('',*,*,#117,.T.);
#184=CYLINDRICAL_SURFACE('',#211,3.5);
#185=CYLINDRICAL_SURFACE('',#214,2.5);
#186=ADVANCED_FACE('',(#27),#184,.T.);
#187=ADVANCED_FACE('',(#28),#185,.F.);
#188=ADVANCED_FACE('',(#29,#15),#18,.T.);
#189=ADVANCED_FACE('',(#30),#19,.T.);
#190=ADVANCED_FACE('',(#31),#20,.T.);
#191=ADVANCED_FACE('',(#32),#21,.T.);
#192=ADVANCED_FACE('',(#33),#22,.T.);
#193=ADVANCED_FACE('',(#34),#23,.T.);
#194=ADVANCED_FACE('',(#35),#24,.T.);
#195=ADVANCED_FACE('',(#36,#16),#25,.T.);
#196=ADVANCED_FACE('',(#37,#17),#26,.F.);
#197=CLOSED_SHELL('',(#186,#187,#188,#189,#190,#191,#192,#193,#194,#195,
#196));
#198=DERIVED_UNIT_ELEMENT(#200,1.);
#199=DERIVED_UNIT_ELEMENT(#335,-3.);
#200=(
MASS_UNIT()
NAMED_UNIT(*)
SI_UNIT(.KILO.,.GRAM.)
);
#201=DERIVED_UNIT((#198,#199));
#202=MEASURE_REPRESENTATION_ITEM('density measure',
POSITIVE_RATIO_MEASURE(3400.),#201);
#203=PROPERTY_DEFINITION_REPRESENTATION(#208,#205);
#204=PROPERTY_DEFINITION_REPRESENTATION(#209,#206);
#205=REPRESENTATION('material name',(#207),#332);
#206=REPRESENTATION('density',(#202),#332);
#207=DESCRIPTIVE_REPRESENTATION_ITEM('Porcelain, glazed',
'Porcelain, glazed');
#208=PROPERTY_DEFINITION('material property','material name',#342);
#209=PROPERTY_DEFINITION('material property','density of part',#342);
#210=AXIS2_PLACEMENT_3D('placement',#278,#226,#227);
#211=AXIS2_PLACEMENT_3D('',#279,#228,#229);
#212=AXIS2_PLACEMENT_3D('',#281,#230,#231);
#213=AXIS2_PLACEMENT_3D('',#284,#233,#234);
#214=AXIS2_PLACEMENT_3D('',#285,#235,#236);
#215=AXIS2_PLACEMENT_3D('',#287,#237,#238);
#216=AXIS2_PLACEMENT_3D('',#290,#240,#241);
#217=AXIS2_PLACEMENT_3D('',#291,#242,#243);
#218=AXIS2_PLACEMENT_3D('',#292,#244,#245);
#219=AXIS2_PLACEMENT_3D('',#301,#250,#251);
#220=AXIS2_PLACEMENT_3D('',#307,#255,#256);
#221=AXIS2_PLACEMENT_3D('',#313,#260,#261);
#222=AXIS2_PLACEMENT_3D('',#319,#265,#266);
#223=AXIS2_PLACEMENT_3D('',#325,#270,#271);
#224=AXIS2_PLACEMENT_3D('',#328,#274,#275);
#225=AXIS2_PLACEMENT_3D('',#329,#276,#277);
#226=DIRECTION('axis',(0.,0.,1.));
#227=DIRECTION('refdir',(1.,0.,0.));
#228=DIRECTION('center_axis',(0.,1.,0.));
#229=DIRECTION('ref_axis',(1.,0.,0.));
#230=DIRECTION('center_axis',(0.,1.,0.));
#231=DIRECTION('ref_axis',(1.,0.,0.));
#232=DIRECTION('',(0.,-1.,0.));
#233=DIRECTION('center_axis',(0.,-1.,0.));
#234=DIRECTION('ref_axis',(1.,0.,0.));
#235=DIRECTION('center_axis',(0.,1.,0.));
#236=DIRECTION('ref_axis',(1.,0.,0.));
#237=DIRECTION('center_axis',(0.,-1.,0.));
#238=DIRECTION('ref_axis',(1.,0.,0.));
#239=DIRECTION('',(0.,-1.,0.));
#240=DIRECTION('center_axis',(0.,1.,0.));
#241=DIRECTION('ref_axis',(1.,0.,0.));
#242=DIRECTION('center_axis',(0.,1.,0.));
#243=DIRECTION('ref_axis',(1.,0.,0.));
#244=DIRECTION('center_axis',(0.832421517611448,0.,-0.554142957202791));
#245=DIRECTION('ref_axis',(0.55414295720279,0.,0.832421517611448));
#246=DIRECTION('',(-0.55414295720279,0.,-0.832421517611448));
#247=DIRECTION('',(0.,-1.,0.));
#248=DIRECTION('',(0.55414295720279,0.,0.832421517611448));
#249=DIRECTION('',(0.,-1.,0.));
#250=DIRECTION('center_axis',(-0.0636911194601259,0.,-0.997969659509705));
#251=DIRECTION('ref_axis',(0.997969659509705,0.,-0.0636911194601259));
#252=DIRECTION('',(-0.997969659509705,0.,0.0636911194601259));
#253=DIRECTION('',(0.997969659509705,0.,-0.0636911194601259));
#254=DIRECTION('',(0.,-1.,0.));
#255=DIRECTION('center_axis',(-0.896112637071573,0.,-0.443826702306915));
#256=DIRECTION('ref_axis',(0.443826702306915,0.,-0.896112637071573));
#257=DIRECTION('',(-0.443826702306915,0.,0.896112637071573));
#258=DIRECTION('',(0.443826702306915,0.,-0.896112637071573));
#259=DIRECTION('',(0.,-1.,0.));
#260=DIRECTION('center_axis',(-0.832421517611448,0.,0.554142957202791));
#261=DIRECTION('ref_axis',(-0.554142957202791,0.,-0.832421517611448));
#262=DIRECTION('',(0.554142957202791,0.,0.832421517611448));
#263=DIRECTION('',(-0.554142957202791,0.,-0.832421517611448));
#264=DIRECTION('',(0.,-1.,0.));
#265=DIRECTION('center_axis',(0.0636911194601252,0.,0.997969659509705));
#266=DIRECTION('ref_axis',(-0.997969659509705,0.,0.0636911194601252));
#267=DIRECTION('',(0.997969659509705,0.,-0.0636911194601252));
#268=DIRECTION('',(-0.997969659509705,0.,0.0636911194601252));
#269=DIRECTION('',(0.,-1.,0.));
#270=DIRECTION('center_axis',(0.896112637071574,0.,0.443826702306914));
#271=DIRECTION('ref_axis',(-0.443826702306914,0.,0.896112637071574));
#272=DIRECTION('',(0.443826702306914,0.,-0.896112637071574));
#273=DIRECTION('',(-0.443826702306914,0.,0.896112637071574));
#274=DIRECTION('center_axis',(0.,1.,0.));
#275=DIRECTION('ref_axis',(1.,0.,0.));
#276=DIRECTION('center_axis',(0.,1.,0.));
#277=DIRECTION('ref_axis',(1.,0.,0.));
#278=CARTESIAN_POINT('',(0.,0.,0.));
#279=CARTESIAN_POINT('Origin',(0.,0.,0.));
#280=CARTESIAN_POINT('',(-3.5,2.,4.16333634234434E-16));
#281=CARTESIAN_POINT('Origin',(0.,2.,0.));
#282=CARTESIAN_POINT('',(-3.5,0.,4.28626379701574E-16));
#283=CARTESIAN_POINT('',(-3.5,0.,4.28626379701574E-16));
#284=CARTESIAN_POINT('Origin',(0.,0.,0.));
#285=CARTESIAN_POINT('Origin',(-0.665937214089162,0.,0.443314365762235));
#286=CARTESIAN_POINT('',(-3.16593721408916,2.,0.443314365762235));
#287=CARTESIAN_POINT('Origin',(-0.665937214089162,2.,0.443314365762235));
#288=CARTESIAN_POINT('',(-3.16593721408916,-8.,0.443314365762235));
#289=CARTESIAN_POINT('',(-3.16593721408916,0.,0.443314365762235));
#290=CARTESIAN_POINT('Origin',(-0.665937214089162,-8.,0.443314365762235));
#291=CARTESIAN_POINT('Origin',(0.,2.,0.));
#292=CARTESIAN_POINT('Origin',(2.56243466050444,0.,-5.17370872237505));
#293=CARTESIAN_POINT('',(5.76178051561014,0.,-0.367720849652927));
#294=CARTESIAN_POINT('',(2.56243466050444,0.,-5.17370872237505));
#295=CARTESIAN_POINT('',(5.76178051561014,0.,-0.367720849652927));
#296=CARTESIAN_POINT('',(5.76178051561014,-8.,-0.367720849652927));
#297=CARTESIAN_POINT('',(5.76178051561014,0.,-0.367720849652927));
#298=CARTESIAN_POINT('',(2.56243466050444,-8.,-5.17370872237505));
#299=CARTESIAN_POINT('',(5.76178051561014,-8.,-0.367720849652927));
#300=CARTESIAN_POINT('',(2.56243466050444,0.,-5.17370872237505));
#301=CARTESIAN_POINT('Origin',(-3.1993458551057,0.,-4.80598787272212));
#302=CARTESIAN_POINT('',(-3.1993458551057,0.,-4.80598787272212));
#303=CARTESIAN_POINT('',(2.56243466050444,0.,-5.17370872237505));
#304=CARTESIAN_POINT('',(-3.1993458551057,-8.,-4.80598787272212));
#305=CARTESIAN_POINT('',(2.56243466050444,-8.,-5.17370872237505));
#306=CARTESIAN_POINT('',(-3.1993458551057,0.,-4.80598787272212));
#307=CARTESIAN_POINT('Origin',(-5.76178051561014,0.,0.367720849652926));
#308=CARTESIAN_POINT('',(-5.76178051561014,0.,0.367720849652926));
#309=CARTESIAN_POINT('',(-3.1993458551057,0.,-4.80598787272212));
#310=CARTESIAN_POINT('',(-5.76178051561014,-8.,0.367720849652926));
#311=CARTESIAN_POINT('',(-3.1993458551057,-8.,-4.80598787272212));
#312=CARTESIAN_POINT('',(-5.76178051561014,0.,0.367720849652926));
#313=CARTESIAN_POINT('Origin',(-2.56243466050444,0.,5.17370872237505));
#314=CARTESIAN_POINT('',(-2.56243466050444,0.,5.17370872237505));
#315=CARTESIAN_POINT('',(-5.76178051561014,0.,0.367720849652926));
#316=CARTESIAN_POINT('',(-2.56243466050444,-8.,5.17370872237505));
#317=CARTESIAN_POINT('',(-5.76178051561014,-8.,0.367720849652926));
#318=CARTESIAN_POINT('',(-2.56243466050444,0.,5.17370872237505));
#319=CARTESIAN_POINT('Origin',(3.1993458551057,0.,4.80598787272212));
#320=CARTESIAN_POINT('',(3.1993458551057,0.,4.80598787272212));
#321=CARTESIAN_POINT('',(-2.56243466050444,0.,5.17370872237505));
#322=CARTESIAN_POINT('',(3.1993458551057,-8.,4.80598787272212));
#323=CARTESIAN_POINT('',(-2.56243466050444,-8.,5.17370872237505));
#324=CARTESIAN_POINT('',(3.1993458551057,0.,4.80598787272212));
#325=CARTESIAN_POINT('Origin',(5.76178051561014,0.,-0.367720849652926));
#326=CARTESIAN_POINT('',(3.1993458551057,0.,4.80598787272212));
#327=CARTESIAN_POINT('',(3.1993458551057,-8.,4.80598787272212));
#328=CARTESIAN_POINT('Origin',(-1.11022302462516E-15,0.,0.));
#329=CARTESIAN_POINT('Origin',(-1.11022302462516E-15,-8.,0.));
#330=UNCERTAINTY_MEASURE_WITH_UNIT(LENGTH_MEASURE(0.01),#334,
'DISTANCE_ACCURACY_VALUE',
'Maximum model space distance between geometric entities at asserted c
onnectivities');
#331=UNCERTAINTY_MEASURE_WITH_UNIT(LENGTH_MEASURE(0.01),#334,
'DISTANCE_ACCURACY_VALUE',
'Maximum model space distance between geometric entities at asserted c
onnectivities');
#332=(
GEOMETRIC_REPRESENTATION_CONTEXT(3)
GLOBAL_UNCERTAINTY_ASSIGNED_CONTEXT((#330))
GLOBAL_UNIT_ASSIGNED_CONTEXT((#334,#336,#337))
REPRESENTATION_CONTEXT('','3D')
);
#333=(
GEOMETRIC_REPRESENTATION_CONTEXT(3)
GLOBAL_UNCERTAINTY_ASSIGNED_CONTEXT((#331))
GLOBAL_UNIT_ASSIGNED_CONTEXT((#334,#336,#337))
REPRESENTATION_CONTEXT('','3D')
);
#334=(
LENGTH_UNIT()
NAMED_UNIT(*)
SI_UNIT(.MILLI.,.METRE.)
);
#335=(
LENGTH_UNIT()
NAMED_UNIT(*)
SI_UNIT($,.METRE.)
);
#336=(
NAMED_UNIT(*)
PLANE_ANGLE_UNIT()
SI_UNIT($,.RADIAN.)
);
#337=(
NAMED_UNIT(*)
SI_UNIT($,.STERADIAN.)
SOLID_ANGLE_UNIT()
);
#338=SHAPE_DEFINITION_REPRESENTATION(#339,#340);
#339=PRODUCT_DEFINITION_SHAPE('',$,#342);
#340=SHAPE_REPRESENTATION('',(#210),#332);
#341=PRODUCT_DEFINITION_CONTEXT('part definition',#346,'design');
#342=PRODUCT_DEFINITION('Sharplayers_8596531012206',
'Sharplayers_8596531012206 v1',#343,#341);
#343=PRODUCT_DEFINITION_FORMATION('',$,#348);
#344=PRODUCT_RELATED_PRODUCT_CATEGORY('Sharplayers_8596531012206 v1',
'Sharplayers_8596531012206 v1',(#348));
#345=APPLICATION_PROTOCOL_DEFINITION('international standard',
'automotive_design',2009,#346);
#346=APPLICATION_CONTEXT(
'Core Data for Automotive Mechanical Design Process');
#347=PRODUCT_CONTEXT('part definition',#346,'mechanical');
#348=PRODUCT('Sharplayers_8596531012206','Sharplayers_8596531012206 v1',
$,(#347));
#349=PRESENTATION_STYLE_ASSIGNMENT((#350));
#350=SURFACE_STYLE_USAGE(.BOTH.,#351);
#351=SURFACE_SIDE_STYLE('',(#352));
#352=SURFACE_STYLE_FILL_AREA(#353);
#353=FILL_AREA_STYLE('Paint - Enamel Glossy (White)',(#354));
#354=FILL_AREA_STYLE_COLOUR('Paint - Enamel Glossy (White)',#355);
#355=COLOUR_RGB('Paint - Enamel Glossy (White)',0.964705882352941,0.964705882352941,
0.952941176470588);
ENDSEC;
END-ISO-10303-21;
