ISO-10303-21;
HEADER;
/* Generated by software containing ST-Developer
 * from STEP Tools, Inc. (www.steptools.com) 
 */

FILE_DESCRIPTION(
/* description */ (''),
/* implementation_level */ '2;1');

FILE_NAME(
/* name */ 'C:/Users/capra/Downloads/Sharplayers_8596531000883 v1.step',

/* time_stamp */ '2022-01-18T11:36:46+01:00',
/* author */ (''),
/* organization */ (''),
/* preprocessor_version */ 'ST-DEVELOPER v18.1',
/* originating_system */ 'Autodesk Translation Framework v10.10.0.1391',

/* authorisation */ '');

FILE_SCHEMA (('AUTOMOTIVE_DESIGN { 1 0 10303 214 3 1 1 }'));
ENDSEC;

DATA;
#10=MECHANICAL_DESIGN_GEOMETRIC_PRESENTATION_REPRESENTATION('',(#13),#460);
#11=SHAPE_REPRESENTATION_RELATIONSHIP('SRR','None',#467,#12);
#12=ADVANCED_BREP_SHAPE_REPRESENTATION('',(#14),#459);
#13=STYLED_ITEM('',(#476),#14);
#14=MANIFOLD_SOLID_BREP('Body1',#264);
#15=FACE_BOUND('',#48,.T.);
#16=FACE_BOUND('',#49,.T.);
#17=FACE_BOUND('',#51,.T.);
#18=FACE_BOUND('',#56,.T.);
#19=FACE_BOUND('',#59,.T.);
#20=FACE_BOUND('',#63,.T.);
#21=FACE_BOUND('',#64,.T.);
#22=FACE_BOUND('',#68,.T.);
#23=PLANE('',#281);
#24=PLANE('',#284);
#25=PLANE('',#293);
#26=PLANE('',#297);
#27=PLANE('',#303);
#28=PLANE('',#304);
#29=PLANE('',#305);
#30=PLANE('',#306);
#31=FACE_OUTER_BOUND('',#46,.T.);
#32=FACE_OUTER_BOUND('',#47,.T.);
#33=FACE_OUTER_BOUND('',#50,.T.);
#34=FACE_OUTER_BOUND('',#52,.T.);
#35=FACE_OUTER_BOUND('',#53,.T.);
#36=FACE_OUTER_BOUND('',#54,.T.);
#37=FACE_OUTER_BOUND('',#55,.T.);
#38=FACE_OUTER_BOUND('',#57,.T.);
#39=FACE_OUTER_BOUND('',#58,.T.);
#40=FACE_OUTER_BOUND('',#60,.T.);
#41=FACE_OUTER_BOUND('',#61,.T.);
#42=FACE_OUTER_BOUND('',#62,.T.);
#43=FACE_OUTER_BOUND('',#65,.T.);
#44=FACE_OUTER_BOUND('',#66,.T.);
#45=FACE_OUTER_BOUND('',#67,.T.);
#46=EDGE_LOOP('',(#176,#177,#178,#179));
#47=EDGE_LOOP('',(#180,#181,#182,#183));
#48=EDGE_LOOP('',(#184));
#49=EDGE_LOOP('',(#185));
#50=EDGE_LOOP('',(#186,#187,#188,#189,#190,#191));
#51=EDGE_LOOP('',(#192));
#52=EDGE_LOOP('',(#193,#194,#195,#196));
#53=EDGE_LOOP('',(#197,#198,#199,#200));
#54=EDGE_LOOP('',(#201,#202,#203,#204));
#55=EDGE_LOOP('',(#205));
#56=EDGE_LOOP('',(#206));
#57=EDGE_LOOP('',(#207,#208,#209,#210));
#58=EDGE_LOOP('',(#211));
#59=EDGE_LOOP('',(#212));
#60=EDGE_LOOP('',(#213,#214,#215,#216));
#61=EDGE_LOOP('',(#217,#218,#219,#220));
#62=EDGE_LOOP('',(#221,#222,#223,#224));
#63=EDGE_LOOP('',(#225));
#64=EDGE_LOOP('',(#226));
#65=EDGE_LOOP('',(#227,#228,#229,#230));
#66=EDGE_LOOP('',(#231,#232,#233,#234));
#67=EDGE_LOOP('',(#235,#236,#237,#238,#239,#240));
#68=EDGE_LOOP('',(#241));
#69=LINE('',#392,#88);
#70=LINE('',#395,#89);
#71=LINE('',#398,#90);
#72=LINE('',#400,#91);
#73=LINE('',#401,#92);
#74=LINE('',#408,#93);
#75=LINE('',#410,#94);
#76=LINE('',#412,#95);
#77=LINE('',#419,#96);
#78=LINE('',#423,#97);
#79=LINE('',#426,#98);
#80=LINE('',#433,#99);
#81=LINE('',#441,#100);
#82=LINE('',#445,#101);
#83=LINE('',#448,#102);
#84=LINE('',#450,#103);
#85=LINE('',#451,#104);
#86=LINE('',#453,#105);
#87=LINE('',#455,#106);
#88=VECTOR('',#313,10.);
#89=VECTOR('',#316,10.);
#90=VECTOR('',#319,10.);
#91=VECTOR('',#320,10.);
#92=VECTOR('',#321,10.);
#93=VECTOR('',#328,10.);
#94=VECTOR('',#329,10.);
#95=VECTOR('',#330,10.);
#96=VECTOR('',#339,10.);
#97=VECTOR('',#344,4.);
#98=VECTOR('',#347,4.);
#99=VECTOR('',#356,4.);
#100=VECTOR('',#367,2.1);
#101=VECTOR('',#372,2.1);
#102=VECTOR('',#375,10.);
#103=VECTOR('',#376,10.);
#104=VECTOR('',#377,10.);
#105=VECTOR('',#380,10.);
#106=VECTOR('',#383,10.);
#107=CIRCLE('',#279,3.);
#108=CIRCLE('',#280,3.);
#109=CIRCLE('',#282,4.);
#110=CIRCLE('',#283,4.);
#111=CIRCLE('',#285,3.);
#112=CIRCLE('',#286,4.);
#113=CIRCLE('',#288,3.);
#114=CIRCLE('',#290,4.);
#115=CIRCLE('',#292,4.);
#116=CIRCLE('',#294,2.1);
#117=CIRCLE('',#296,4.);
#118=CIRCLE('',#298,2.1);
#119=CIRCLE('',#300,2.1);
#120=CIRCLE('',#302,2.1);
#121=VERTEX_POINT('',#388);
#122=VERTEX_POINT('',#389);
#123=VERTEX_POINT('',#391);
#124=VERTEX_POINT('',#393);
#125=VERTEX_POINT('',#397);
#126=VERTEX_POINT('',#399);
#127=VERTEX_POINT('',#402);
#128=VERTEX_POINT('',#404);
#129=VERTEX_POINT('',#407);
#130=VERTEX_POINT('',#409);
#131=VERTEX_POINT('',#411);
#132=VERTEX_POINT('',#414);
#133=VERTEX_POINT('',#417);
#134=VERTEX_POINT('',#421);
#135=VERTEX_POINT('',#425);
#136=VERTEX_POINT('',#429);
#137=VERTEX_POINT('',#432);
#138=VERTEX_POINT('',#436);
#139=VERTEX_POINT('',#439);
#140=VERTEX_POINT('',#443);
#141=VERTEX_POINT('',#447);
#142=VERTEX_POINT('',#449);
#143=EDGE_CURVE('',#121,#122,#107,.T.);
#144=EDGE_CURVE('',#122,#123,#69,.T.);
#145=EDGE_CURVE('',#123,#124,#108,.T.);
#146=EDGE_CURVE('',#124,#121,#70,.T.);
#147=EDGE_CURVE('',#124,#125,#71,.T.);
#148=EDGE_CURVE('',#126,#125,#72,.T.);
#149=EDGE_CURVE('',#121,#126,#73,.T.);
#150=EDGE_CURVE('',#127,#127,#109,.T.);
#151=EDGE_CURVE('',#128,#128,#110,.T.);
#152=EDGE_CURVE('',#129,#123,#74,.T.);
#153=EDGE_CURVE('',#130,#129,#75,.T.);
#154=EDGE_CURVE('',#131,#130,#76,.T.);
#155=EDGE_CURVE('',#125,#131,#111,.T.);
#156=EDGE_CURVE('',#132,#132,#112,.T.);
#157=EDGE_CURVE('',#133,#126,#113,.T.);
#158=EDGE_CURVE('',#131,#133,#77,.T.);
#159=EDGE_CURVE('',#134,#134,#114,.T.);
#160=EDGE_CURVE('',#134,#132,#78,.T.);
#161=EDGE_CURVE('',#127,#135,#79,.T.);
#162=EDGE_CURVE('',#135,#135,#115,.T.);
#163=EDGE_CURVE('',#136,#136,#116,.T.);
#164=EDGE_CURVE('',#128,#137,#80,.T.);
#165=EDGE_CURVE('',#137,#137,#117,.T.);
#166=EDGE_CURVE('',#138,#138,#118,.T.);
#167=EDGE_CURVE('',#139,#139,#119,.T.);
#168=EDGE_CURVE('',#139,#136,#81,.T.);
#169=EDGE_CURVE('',#140,#140,#120,.T.);
#170=EDGE_CURVE('',#140,#138,#82,.T.);
#171=EDGE_CURVE('',#129,#141,#83,.T.);
#172=EDGE_CURVE('',#142,#141,#84,.T.);
#173=EDGE_CURVE('',#130,#142,#85,.T.);
#174=EDGE_CURVE('',#133,#142,#86,.T.);
#175=EDGE_CURVE('',#141,#122,#87,.T.);
#176=ORIENTED_EDGE('',*,*,#143,.T.);
#177=ORIENTED_EDGE('',*,*,#144,.T.);
#178=ORIENTED_EDGE('',*,*,#145,.T.);
#179=ORIENTED_EDGE('',*,*,#146,.T.);
#180=ORIENTED_EDGE('',*,*,#146,.F.);
#181=ORIENTED_EDGE('',*,*,#147,.T.);
#182=ORIENTED_EDGE('',*,*,#148,.F.);
#183=ORIENTED_EDGE('',*,*,#149,.F.);
#184=ORIENTED_EDGE('',*,*,#150,.T.);
#185=ORIENTED_EDGE('',*,*,#151,.T.);
#186=ORIENTED_EDGE('',*,*,#145,.F.);
#187=ORIENTED_EDGE('',*,*,#152,.F.);
#188=ORIENTED_EDGE('',*,*,#153,.F.);
#189=ORIENTED_EDGE('',*,*,#154,.F.);
#190=ORIENTED_EDGE('',*,*,#155,.F.);
#191=ORIENTED_EDGE('',*,*,#147,.F.);
#192=ORIENTED_EDGE('',*,*,#156,.T.);
#193=ORIENTED_EDGE('',*,*,#157,.T.);
#194=ORIENTED_EDGE('',*,*,#148,.T.);
#195=ORIENTED_EDGE('',*,*,#155,.T.);
#196=ORIENTED_EDGE('',*,*,#158,.T.);
#197=ORIENTED_EDGE('',*,*,#159,.F.);
#198=ORIENTED_EDGE('',*,*,#160,.T.);
#199=ORIENTED_EDGE('',*,*,#156,.F.);
#200=ORIENTED_EDGE('',*,*,#160,.F.);
#201=ORIENTED_EDGE('',*,*,#150,.F.);
#202=ORIENTED_EDGE('',*,*,#161,.T.);
#203=ORIENTED_EDGE('',*,*,#162,.T.);
#204=ORIENTED_EDGE('',*,*,#161,.F.);
#205=ORIENTED_EDGE('',*,*,#162,.F.);
#206=ORIENTED_EDGE('',*,*,#163,.F.);
#207=ORIENTED_EDGE('',*,*,#151,.F.);
#208=ORIENTED_EDGE('',*,*,#164,.T.);
#209=ORIENTED_EDGE('',*,*,#165,.T.);
#210=ORIENTED_EDGE('',*,*,#164,.F.);
#211=ORIENTED_EDGE('',*,*,#165,.F.);
#212=ORIENTED_EDGE('',*,*,#166,.F.);
#213=ORIENTED_EDGE('',*,*,#167,.F.);
#214=ORIENTED_EDGE('',*,*,#168,.T.);
#215=ORIENTED_EDGE('',*,*,#163,.T.);
#216=ORIENTED_EDGE('',*,*,#168,.F.);
#217=ORIENTED_EDGE('',*,*,#169,.F.);
#218=ORIENTED_EDGE('',*,*,#170,.T.);
#219=ORIENTED_EDGE('',*,*,#166,.T.);
#220=ORIENTED_EDGE('',*,*,#170,.F.);
#221=ORIENTED_EDGE('',*,*,#153,.T.);
#222=ORIENTED_EDGE('',*,*,#171,.T.);
#223=ORIENTED_EDGE('',*,*,#172,.F.);
#224=ORIENTED_EDGE('',*,*,#173,.F.);
#225=ORIENTED_EDGE('',*,*,#167,.T.);
#226=ORIENTED_EDGE('',*,*,#169,.T.);
#227=ORIENTED_EDGE('',*,*,#158,.F.);
#228=ORIENTED_EDGE('',*,*,#154,.T.);
#229=ORIENTED_EDGE('',*,*,#173,.T.);
#230=ORIENTED_EDGE('',*,*,#174,.F.);
#231=ORIENTED_EDGE('',*,*,#144,.F.);
#232=ORIENTED_EDGE('',*,*,#175,.F.);
#233=ORIENTED_EDGE('',*,*,#171,.F.);
#234=ORIENTED_EDGE('',*,*,#152,.T.);
#235=ORIENTED_EDGE('',*,*,#143,.F.);
#236=ORIENTED_EDGE('',*,*,#149,.T.);
#237=ORIENTED_EDGE('',*,*,#157,.F.);
#238=ORIENTED_EDGE('',*,*,#174,.T.);
#239=ORIENTED_EDGE('',*,*,#172,.T.);
#240=ORIENTED_EDGE('',*,*,#175,.T.);
#241=ORIENTED_EDGE('',*,*,#159,.T.);
#242=CYLINDRICAL_SURFACE('',#278,3.);
#243=CYLINDRICAL_SURFACE('',#287,3.);
#244=CYLINDRICAL_SURFACE('',#289,4.);
#245=CYLINDRICAL_SURFACE('',#291,4.);
#246=CYLINDRICAL_SURFACE('',#295,4.);
#247=CYLINDRICAL_SURFACE('',#299,2.1);
#248=CYLINDRICAL_SURFACE('',#301,2.1);
#249=ADVANCED_FACE('',(#31),#242,.T.);
#250=ADVANCED_FACE('',(#32,#15,#16),#23,.T.);
#251=ADVANCED_FACE('',(#33,#17),#24,.F.);
#252=ADVANCED_FACE('',(#34),#243,.T.);
#253=ADVANCED_FACE('',(#35),#244,.F.);
#254=ADVANCED_FACE('',(#36),#245,.F.);
#255=ADVANCED_FACE('',(#37,#18),#25,.T.);
#256=ADVANCED_FACE('',(#38),#246,.F.);
#257=ADVANCED_FACE('',(#39,#19),#26,.T.);
#258=ADVANCED_FACE('',(#40),#247,.F.);
#259=ADVANCED_FACE('',(#41),#248,.F.);
#260=ADVANCED_FACE('',(#42,#20,#21),#27,.T.);
#261=ADVANCED_FACE('',(#43),#28,.T.);
#262=ADVANCED_FACE('',(#44),#29,.T.);
#263=ADVANCED_FACE('',(#45,#22),#30,.T.);
#264=CLOSED_SHELL('',(#249,#250,#251,#252,#253,#254,#255,#256,#257,#258,
#259,#260,#261,#262,#263));
#265=DERIVED_UNIT_ELEMENT(#267,1.);
#266=DERIVED_UNIT_ELEMENT(#462,-3.);
#267=(
MASS_UNIT()
NAMED_UNIT(*)
SI_UNIT(.KILO.,.GRAM.)
);
#268=DERIVED_UNIT((#265,#266));
#269=MEASURE_REPRESENTATION_ITEM('density measure',
POSITIVE_RATIO_MEASURE(3400.),#268);
#270=PROPERTY_DEFINITION_REPRESENTATION(#275,#272);
#271=PROPERTY_DEFINITION_REPRESENTATION(#276,#273);
#272=REPRESENTATION('material name',(#274),#459);
#273=REPRESENTATION('density',(#269),#459);
#274=DESCRIPTIVE_REPRESENTATION_ITEM('Porcelain, glazed',
'Porcelain, glazed');
#275=PROPERTY_DEFINITION('material property','material name',#469);
#276=PROPERTY_DEFINITION('material property','density of part',#469);
#277=AXIS2_PLACEMENT_3D('placement',#386,#307,#308);
#278=AXIS2_PLACEMENT_3D('',#387,#309,#310);
#279=AXIS2_PLACEMENT_3D('',#390,#311,#312);
#280=AXIS2_PLACEMENT_3D('',#394,#314,#315);
#281=AXIS2_PLACEMENT_3D('',#396,#317,#318);
#282=AXIS2_PLACEMENT_3D('',#403,#322,#323);
#283=AXIS2_PLACEMENT_3D('',#405,#324,#325);
#284=AXIS2_PLACEMENT_3D('',#406,#326,#327);
#285=AXIS2_PLACEMENT_3D('',#413,#331,#332);
#286=AXIS2_PLACEMENT_3D('',#415,#333,#334);
#287=AXIS2_PLACEMENT_3D('',#416,#335,#336);
#288=AXIS2_PLACEMENT_3D('',#418,#337,#338);
#289=AXIS2_PLACEMENT_3D('',#420,#340,#341);
#290=AXIS2_PLACEMENT_3D('',#422,#342,#343);
#291=AXIS2_PLACEMENT_3D('',#424,#345,#346);
#292=AXIS2_PLACEMENT_3D('',#427,#348,#349);
#293=AXIS2_PLACEMENT_3D('',#428,#350,#351);
#294=AXIS2_PLACEMENT_3D('',#430,#352,#353);
#295=AXIS2_PLACEMENT_3D('',#431,#354,#355);
#296=AXIS2_PLACEMENT_3D('',#434,#357,#358);
#297=AXIS2_PLACEMENT_3D('',#435,#359,#360);
#298=AXIS2_PLACEMENT_3D('',#437,#361,#362);
#299=AXIS2_PLACEMENT_3D('',#438,#363,#364);
#300=AXIS2_PLACEMENT_3D('',#440,#365,#366);
#301=AXIS2_PLACEMENT_3D('',#442,#368,#369);
#302=AXIS2_PLACEMENT_3D('',#444,#370,#371);
#303=AXIS2_PLACEMENT_3D('',#446,#373,#374);
#304=AXIS2_PLACEMENT_3D('',#452,#378,#379);
#305=AXIS2_PLACEMENT_3D('',#454,#381,#382);
#306=AXIS2_PLACEMENT_3D('',#456,#384,#385);
#307=DIRECTION('axis',(0.,0.,1.));
#308=DIRECTION('refdir',(1.,0.,0.));
#309=DIRECTION('center_axis',(1.,0.,0.));
#310=DIRECTION('ref_axis',(0.,-0.707106781186548,0.707106781186548));
#311=DIRECTION('center_axis',(-1.,0.,0.));
#312=DIRECTION('ref_axis',(0.,-0.707106781186548,0.707106781186548));
#313=DIRECTION('',(-1.,0.,0.));
#314=DIRECTION('center_axis',(1.,0.,0.));
#315=DIRECTION('ref_axis',(0.,-0.707106781186548,0.707106781186548));
#316=DIRECTION('',(1.,0.,0.));
#317=DIRECTION('center_axis',(0.,-1.,0.));
#318=DIRECTION('ref_axis',(0.,0.,-1.));
#319=DIRECTION('',(0.,0.,-1.));
#320=DIRECTION('',(-1.,0.,0.));
#321=DIRECTION('',(0.,0.,-1.));
#322=DIRECTION('center_axis',(0.,1.,0.));
#323=DIRECTION('ref_axis',(1.,0.,0.));
#324=DIRECTION('center_axis',(0.,1.,0.));
#325=DIRECTION('ref_axis',(1.,0.,0.));
#326=DIRECTION('center_axis',(1.,0.,0.));
#327=DIRECTION('ref_axis',(0.,0.,-1.));
#328=DIRECTION('',(0.,-1.,0.));
#329=DIRECTION('',(0.,0.,1.));
#330=DIRECTION('',(0.,1.,0.));
#331=DIRECTION('center_axis',(1.,0.,0.));
#332=DIRECTION('ref_axis',(0.,-0.707106781186547,-0.707106781186548));
#333=DIRECTION('center_axis',(1.,0.,0.));
#334=DIRECTION('ref_axis',(0.,0.,-1.));
#335=DIRECTION('center_axis',(1.,0.,0.));
#336=DIRECTION('ref_axis',(0.,-0.707106781186547,-0.707106781186548));
#337=DIRECTION('center_axis',(-1.,0.,0.));
#338=DIRECTION('ref_axis',(0.,-0.707106781186547,-0.707106781186548));
#339=DIRECTION('',(1.,0.,0.));
#340=DIRECTION('center_axis',(-1.,0.,0.));
#341=DIRECTION('ref_axis',(0.,0.,-1.));
#342=DIRECTION('center_axis',(-1.,0.,0.));
#343=DIRECTION('ref_axis',(0.,0.,-1.));
#344=DIRECTION('',(-1.,0.,0.));
#345=DIRECTION('center_axis',(0.,1.,0.));
#346=DIRECTION('ref_axis',(1.,0.,0.));
#347=DIRECTION('',(0.,1.,0.));
#348=DIRECTION('center_axis',(0.,1.,0.));
#349=DIRECTION('ref_axis',(1.,0.,0.));
#350=DIRECTION('center_axis',(0.,-1.,0.));
#351=DIRECTION('ref_axis',(1.,0.,0.));
#352=DIRECTION('center_axis',(0.,-1.,0.));
#353=DIRECTION('ref_axis',(-1.,0.,0.));
#354=DIRECTION('center_axis',(0.,1.,0.));
#355=DIRECTION('ref_axis',(1.,0.,0.));
#356=DIRECTION('',(0.,1.,0.));
#357=DIRECTION('center_axis',(0.,1.,0.));
#358=DIRECTION('ref_axis',(1.,0.,0.));
#359=DIRECTION('center_axis',(0.,-1.,0.));
#360=DIRECTION('ref_axis',(1.,0.,0.));
#361=DIRECTION('center_axis',(0.,-1.,0.));
#362=DIRECTION('ref_axis',(-1.,0.,0.));
#363=DIRECTION('center_axis',(0.,-1.,0.));
#364=DIRECTION('ref_axis',(-1.,0.,0.));
#365=DIRECTION('center_axis',(0.,-1.,0.));
#366=DIRECTION('ref_axis',(-1.,0.,0.));
#367=DIRECTION('',(0.,-1.,0.));
#368=DIRECTION('center_axis',(0.,-1.,0.));
#369=DIRECTION('ref_axis',(-1.,0.,0.));
#370=DIRECTION('center_axis',(0.,-1.,0.));
#371=DIRECTION('ref_axis',(-1.,0.,0.));
#372=DIRECTION('',(0.,-1.,0.));
#373=DIRECTION('center_axis',(0.,1.,0.));
#374=DIRECTION('ref_axis',(0.,0.,1.));
#375=DIRECTION('',(1.,0.,0.));
#376=DIRECTION('',(0.,0.,1.));
#377=DIRECTION('',(1.,0.,0.));
#378=DIRECTION('center_axis',(0.,0.,-1.));
#379=DIRECTION('ref_axis',(0.,1.,0.));
#380=DIRECTION('',(0.,1.,0.));
#381=DIRECTION('center_axis',(0.,0.,1.));
#382=DIRECTION('ref_axis',(0.,-1.,0.));
#383=DIRECTION('',(0.,-1.,0.));
#384=DIRECTION('center_axis',(1.,0.,0.));
#385=DIRECTION('ref_axis',(0.,0.,-1.));
#386=CARTESIAN_POINT('',(0.,0.,0.));
#387=CARTESIAN_POINT('Origin',(0.,3.,-3.));
#388=CARTESIAN_POINT('',(17.,0.,-3.));
#389=CARTESIAN_POINT('',(17.,3.,0.));
#390=CARTESIAN_POINT('Origin',(17.,3.,-3.));
#391=CARTESIAN_POINT('',(0.,3.,0.));
#392=CARTESIAN_POINT('',(0.,3.,0.));
#393=CARTESIAN_POINT('',(0.,0.,-3.));
#394=CARTESIAN_POINT('Origin',(0.,3.,-3.));
#395=CARTESIAN_POINT('',(0.,0.,-3.));
#396=CARTESIAN_POINT('Origin',(0.,0.,0.));
#397=CARTESIAN_POINT('',(0.,0.,-42.));
#398=CARTESIAN_POINT('',(0.,0.,0.));
#399=CARTESIAN_POINT('',(17.,0.,-42.));
#400=CARTESIAN_POINT('',(0.,0.,-42.));
#401=CARTESIAN_POINT('',(17.,0.,0.));
#402=CARTESIAN_POINT('',(4.5,0.,-37.5));
#403=CARTESIAN_POINT('Origin',(8.5,0.,-37.5));
#404=CARTESIAN_POINT('',(4.5,0.,-7.5));
#405=CARTESIAN_POINT('Origin',(8.5,0.,-7.5));
#406=CARTESIAN_POINT('Origin',(0.,17.,-22.5));
#407=CARTESIAN_POINT('',(0.,34.,0.));
#408=CARTESIAN_POINT('',(0.,34.,0.));
#409=CARTESIAN_POINT('',(0.,34.,-45.));
#410=CARTESIAN_POINT('',(0.,34.,-45.));
#411=CARTESIAN_POINT('',(0.,3.,-45.));
#412=CARTESIAN_POINT('',(0.,0.,-45.));
#413=CARTESIAN_POINT('Origin',(0.,3.,-42.));
#414=CARTESIAN_POINT('',(0.,13.,-18.5));
#415=CARTESIAN_POINT('Origin',(0.,13.,-22.5));
#416=CARTESIAN_POINT('Origin',(0.,3.,-42.));
#417=CARTESIAN_POINT('',(17.,3.,-45.));
#418=CARTESIAN_POINT('Origin',(17.,3.,-42.));
#419=CARTESIAN_POINT('',(0.,3.,-45.));
#420=CARTESIAN_POINT('Origin',(17.,13.,-22.5));
#421=CARTESIAN_POINT('',(17.,13.,-18.5));
#422=CARTESIAN_POINT('Origin',(17.,13.,-22.5));
#423=CARTESIAN_POINT('',(17.,13.,-18.5));
#424=CARTESIAN_POINT('Origin',(8.5,0.,-37.5));
#425=CARTESIAN_POINT('',(4.5,24.,-37.5));
#426=CARTESIAN_POINT('',(4.5,0.,-37.5));
#427=CARTESIAN_POINT('Origin',(8.5,24.,-37.5));
#428=CARTESIAN_POINT('Origin',(8.5,24.,-37.5));
#429=CARTESIAN_POINT('',(10.6,24.,-37.5));
#430=CARTESIAN_POINT('Origin',(8.5,24.,-37.5));
#431=CARTESIAN_POINT('Origin',(8.5,0.,-7.5));
#432=CARTESIAN_POINT('',(4.5,24.,-7.5));
#433=CARTESIAN_POINT('',(4.5,0.,-7.5));
#434=CARTESIAN_POINT('Origin',(8.5,24.,-7.5));
#435=CARTESIAN_POINT('Origin',(8.5,24.,-7.5));
#436=CARTESIAN_POINT('',(10.6,24.,-7.5));
#437=CARTESIAN_POINT('Origin',(8.5,24.,-7.5));
#438=CARTESIAN_POINT('Origin',(8.5,34.,-37.5));
#439=CARTESIAN_POINT('',(10.6,34.,-37.5));
#440=CARTESIAN_POINT('Origin',(8.5,34.,-37.5));
#441=CARTESIAN_POINT('',(10.6,34.,-37.5));
#442=CARTESIAN_POINT('Origin',(8.5,34.,-7.5));
#443=CARTESIAN_POINT('',(10.6,34.,-7.5));
#444=CARTESIAN_POINT('Origin',(8.5,34.,-7.5));
#445=CARTESIAN_POINT('',(10.6,34.,-7.5));
#446=CARTESIAN_POINT('Origin',(0.,34.,-45.));
#447=CARTESIAN_POINT('',(17.,34.,0.));
#448=CARTESIAN_POINT('',(0.,34.,0.));
#449=CARTESIAN_POINT('',(17.,34.,-45.));
#450=CARTESIAN_POINT('',(17.,34.,-45.));
#451=CARTESIAN_POINT('',(0.,34.,-45.));
#452=CARTESIAN_POINT('Origin',(0.,0.,-45.));
#453=CARTESIAN_POINT('',(17.,0.,-45.));
#454=CARTESIAN_POINT('Origin',(0.,34.,0.));
#455=CARTESIAN_POINT('',(17.,34.,0.));
#456=CARTESIAN_POINT('Origin',(17.,17.,-22.5));
#457=UNCERTAINTY_MEASURE_WITH_UNIT(LENGTH_MEASURE(0.01),#461,
'DISTANCE_ACCURACY_VALUE',
'Maximum model space distance between geometric entities at asserted c
onnectivities');
#458=UNCERTAINTY_MEASURE_WITH_UNIT(LENGTH_MEASURE(0.01),#461,
'DISTANCE_ACCURACY_VALUE',
'Maximum model space distance between geometric entities at asserted c
onnectivities');
#459=(
GEOMETRIC_REPRESENTATION_CONTEXT(3)
GLOBAL_UNCERTAINTY_ASSIGNED_CONTEXT((#457))
GLOBAL_UNIT_ASSIGNED_CONTEXT((#461,#463,#464))
REPRESENTATION_CONTEXT('','3D')
);
#460=(
GEOMETRIC_REPRESENTATION_CONTEXT(3)
GLOBAL_UNCERTAINTY_ASSIGNED_CONTEXT((#458))
GLOBAL_UNIT_ASSIGNED_CONTEXT((#461,#463,#464))
REPRESENTATION_CONTEXT('','3D')
);
#461=(
LENGTH_UNIT()
NAMED_UNIT(*)
SI_UNIT(.MILLI.,.METRE.)
);
#462=(
LENGTH_UNIT()
NAMED_UNIT(*)
SI_UNIT($,.METRE.)
);
#463=(
NAMED_UNIT(*)
PLANE_ANGLE_UNIT()
SI_UNIT($,.RADIAN.)
);
#464=(
NAMED_UNIT(*)
SI_UNIT($,.STERADIAN.)
SOLID_ANGLE_UNIT()
);
#465=SHAPE_DEFINITION_REPRESENTATION(#466,#467);
#466=PRODUCT_DEFINITION_SHAPE('',$,#469);
#467=SHAPE_REPRESENTATION('',(#277),#459);
#468=PRODUCT_DEFINITION_CONTEXT('part definition',#473,'design');
#469=PRODUCT_DEFINITION('Sharplayers_8596531000883',
'Sharplayers_8596531000883 v1',#470,#468);
#470=PRODUCT_DEFINITION_FORMATION('',$,#475);
#471=PRODUCT_RELATED_PRODUCT_CATEGORY('Sharplayers_8596531000883 v1',
'Sharplayers_8596531000883 v1',(#475));
#472=APPLICATION_PROTOCOL_DEFINITION('international standard',
'automotive_design',2009,#473);
#473=APPLICATION_CONTEXT(
'Core Data for Automotive Mechanical Design Process');
#474=PRODUCT_CONTEXT('part definition',#473,'mechanical');
#475=PRODUCT('Sharplayers_8596531000883','Sharplayers_8596531000883 v1',
$,(#474));
#476=PRESENTATION_STYLE_ASSIGNMENT((#477));
#477=SURFACE_STYLE_USAGE(.BOTH.,#478);
#478=SURFACE_SIDE_STYLE('',(#479));
#479=SURFACE_STYLE_FILL_AREA(#480);
#480=FILL_AREA_STYLE('Paint - Enamel Glossy (White)',(#481));
#481=FILL_AREA_STYLE_COLOUR('Paint - Enamel Glossy (White)',#482);
#482=COLOUR_RGB('Paint - Enamel Glossy (White)',0.964705882352941,0.964705882352941,
0.952941176470588);
ENDSEC;
END-ISO-10303-21;
