ISO-10303-21;
HEADER;
/* Generated by software containing ST-Developer
 * from STEP Tools, Inc. (www.steptools.com) 
 */

FILE_DESCRIPTION(
/* description */ (''),
/* implementation_level */ '2;1');

FILE_NAME(
/* name */ 'C:/Users/capra/Desktop/Sharplayers_8596531012190.step',
/* time_stamp */ '2022-01-21T17:42:12+01:00',
/* author */ (''),
/* organization */ (''),
/* preprocessor_version */ 'ST-DEVELOPER v18.1',
/* originating_system */ 'Autodesk Translation Framework v10.10.0.1391',

/* authorisation */ '');

FILE_SCHEMA (('AUTOMOTIVE_DESIGN { 1 0 10303 214 3 1 1 }'));
ENDSEC;

DATA;
#10=MECHANICAL_DESIGN_GEOMETRIC_PRESENTATION_REPRESENTATION('',(#13),#432);
#11=SHAPE_REPRESENTATION_RELATIONSHIP('SRR','None',#439,#12);
#12=ADVANCED_BREP_SHAPE_REPRESENTATION('',(#14),#431);
#13=STYLED_ITEM('',(#448),#14);
#14=MANIFOLD_SOLID_BREP('Body1',#260);
#15=FACE_BOUND('',#47,.T.);
#16=FACE_BOUND('',#58,.T.);
#17=FACE_BOUND('',#60,.T.);
#18=PLANE('',#280);
#19=PLANE('',#281);
#20=PLANE('',#282);
#21=PLANE('',#283);
#22=PLANE('',#284);
#23=PLANE('',#285);
#24=PLANE('',#286);
#25=PLANE('',#287);
#26=PLANE('',#288);
#27=PLANE('',#289);
#28=PLANE('',#290);
#29=PLANE('',#291);
#30=FACE_OUTER_BOUND('',#44,.T.);
#31=FACE_OUTER_BOUND('',#45,.T.);
#32=FACE_OUTER_BOUND('',#46,.T.);
#33=FACE_OUTER_BOUND('',#48,.T.);
#34=FACE_OUTER_BOUND('',#49,.T.);
#35=FACE_OUTER_BOUND('',#50,.T.);
#36=FACE_OUTER_BOUND('',#51,.T.);
#37=FACE_OUTER_BOUND('',#52,.T.);
#38=FACE_OUTER_BOUND('',#53,.T.);
#39=FACE_OUTER_BOUND('',#54,.T.);
#40=FACE_OUTER_BOUND('',#55,.T.);
#41=FACE_OUTER_BOUND('',#56,.T.);
#42=FACE_OUTER_BOUND('',#57,.T.);
#43=FACE_OUTER_BOUND('',#59,.T.);
#44=EDGE_LOOP('',(#178,#179,#180,#181));
#45=EDGE_LOOP('',(#182,#183,#184,#185));
#46=EDGE_LOOP('',(#186));
#47=EDGE_LOOP('',(#187));
#48=EDGE_LOOP('',(#188,#189,#190,#191));
#49=EDGE_LOOP('',(#192,#193,#194,#195));
#50=EDGE_LOOP('',(#196,#197,#198,#199));
#51=EDGE_LOOP('',(#200,#201,#202,#203));
#52=EDGE_LOOP('',(#204,#205,#206,#207));
#53=EDGE_LOOP('',(#208,#209,#210,#211));
#54=EDGE_LOOP('',(#212,#213,#214,#215));
#55=EDGE_LOOP('',(#216,#217,#218,#219));
#56=EDGE_LOOP('',(#220,#221,#222,#223));
#57=EDGE_LOOP('',(#224,#225,#226,#227,#228,#229,#230,#231,#232));
#58=EDGE_LOOP('',(#233));
#59=EDGE_LOOP('',(#234,#235,#236,#237,#238,#239,#240,#241,#242));
#60=EDGE_LOOP('',(#243));
#61=LINE('',#364,#90);
#62=LINE('',#370,#91);
#63=LINE('',#376,#92);
#64=LINE('',#378,#93);
#65=LINE('',#380,#94);
#66=LINE('',#381,#95);
#67=LINE('',#384,#96);
#68=LINE('',#386,#97);
#69=LINE('',#387,#98);
#70=LINE('',#390,#99);
#71=LINE('',#392,#100);
#72=LINE('',#393,#101);
#73=LINE('',#396,#102);
#74=LINE('',#398,#103);
#75=LINE('',#399,#104);
#76=LINE('',#402,#105);
#77=LINE('',#404,#106);
#78=LINE('',#405,#107);
#79=LINE('',#408,#108);
#80=LINE('',#410,#109);
#81=LINE('',#411,#110);
#82=LINE('',#414,#111);
#83=LINE('',#416,#112);
#84=LINE('',#417,#113);
#85=LINE('',#420,#114);
#86=LINE('',#422,#115);
#87=LINE('',#423,#116);
#88=LINE('',#425,#117);
#89=LINE('',#426,#118);
#90=VECTOR('',#298,3.5);
#91=VECTOR('',#305,2.5);
#92=VECTOR('',#312,10.);
#93=VECTOR('',#313,10.);
#94=VECTOR('',#314,10.);
#95=VECTOR('',#315,10.);
#96=VECTOR('',#318,10.);
#97=VECTOR('',#319,10.);
#98=VECTOR('',#320,10.);
#99=VECTOR('',#323,10.);
#100=VECTOR('',#324,10.);
#101=VECTOR('',#325,10.);
#102=VECTOR('',#328,10.);
#103=VECTOR('',#329,10.);
#104=VECTOR('',#330,10.);
#105=VECTOR('',#333,10.);
#106=VECTOR('',#334,10.);
#107=VECTOR('',#335,10.);
#108=VECTOR('',#338,10.);
#109=VECTOR('',#339,10.);
#110=VECTOR('',#340,10.);
#111=VECTOR('',#343,10.);
#112=VECTOR('',#344,10.);
#113=VECTOR('',#345,10.);
#114=VECTOR('',#348,10.);
#115=VECTOR('',#349,10.);
#116=VECTOR('',#350,10.);
#117=VECTOR('',#353,10.);
#118=VECTOR('',#354,10.);
#119=CIRCLE('',#275,3.5);
#120=CIRCLE('',#276,3.5);
#121=CIRCLE('',#278,2.5);
#122=CIRCLE('',#279,2.5);
#123=VERTEX_POINT('',#361);
#124=VERTEX_POINT('',#363);
#125=VERTEX_POINT('',#367);
#126=VERTEX_POINT('',#369);
#127=VERTEX_POINT('',#374);
#128=VERTEX_POINT('',#375);
#129=VERTEX_POINT('',#377);
#130=VERTEX_POINT('',#379);
#131=VERTEX_POINT('',#383);
#132=VERTEX_POINT('',#385);
#133=VERTEX_POINT('',#389);
#134=VERTEX_POINT('',#391);
#135=VERTEX_POINT('',#395);
#136=VERTEX_POINT('',#397);
#137=VERTEX_POINT('',#401);
#138=VERTEX_POINT('',#403);
#139=VERTEX_POINT('',#407);
#140=VERTEX_POINT('',#409);
#141=VERTEX_POINT('',#413);
#142=VERTEX_POINT('',#415);
#143=VERTEX_POINT('',#419);
#144=VERTEX_POINT('',#421);
#145=EDGE_CURVE('',#123,#123,#119,.T.);
#146=EDGE_CURVE('',#123,#124,#61,.T.);
#147=EDGE_CURVE('',#124,#124,#120,.T.);
#148=EDGE_CURVE('',#125,#125,#121,.T.);
#149=EDGE_CURVE('',#125,#126,#62,.T.);
#150=EDGE_CURVE('',#126,#126,#122,.T.);
#151=EDGE_CURVE('',#127,#128,#63,.T.);
#152=EDGE_CURVE('',#127,#129,#64,.T.);
#153=EDGE_CURVE('',#130,#129,#65,.T.);
#154=EDGE_CURVE('',#128,#130,#66,.T.);
#155=EDGE_CURVE('',#128,#131,#67,.T.);
#156=EDGE_CURVE('',#132,#130,#68,.T.);
#157=EDGE_CURVE('',#131,#132,#69,.T.);
#158=EDGE_CURVE('',#131,#133,#70,.T.);
#159=EDGE_CURVE('',#134,#132,#71,.T.);
#160=EDGE_CURVE('',#133,#134,#72,.T.);
#161=EDGE_CURVE('',#133,#135,#73,.T.);
#162=EDGE_CURVE('',#136,#134,#74,.T.);
#163=EDGE_CURVE('',#135,#136,#75,.T.);
#164=EDGE_CURVE('',#135,#137,#76,.T.);
#165=EDGE_CURVE('',#138,#136,#77,.T.);
#166=EDGE_CURVE('',#137,#138,#78,.T.);
#167=EDGE_CURVE('',#137,#139,#79,.T.);
#168=EDGE_CURVE('',#140,#138,#80,.T.);
#169=EDGE_CURVE('',#139,#140,#81,.T.);
#170=EDGE_CURVE('',#139,#141,#82,.T.);
#171=EDGE_CURVE('',#142,#140,#83,.T.);
#172=EDGE_CURVE('',#141,#142,#84,.T.);
#173=EDGE_CURVE('',#143,#141,#85,.T.);
#174=EDGE_CURVE('',#144,#142,#86,.T.);
#175=EDGE_CURVE('',#143,#144,#87,.T.);
#176=EDGE_CURVE('',#143,#127,#88,.T.);
#177=EDGE_CURVE('',#129,#144,#89,.T.);
#178=ORIENTED_EDGE('',*,*,#145,.F.);
#179=ORIENTED_EDGE('',*,*,#146,.T.);
#180=ORIENTED_EDGE('',*,*,#147,.F.);
#181=ORIENTED_EDGE('',*,*,#146,.F.);
#182=ORIENTED_EDGE('',*,*,#148,.F.);
#183=ORIENTED_EDGE('',*,*,#149,.T.);
#184=ORIENTED_EDGE('',*,*,#150,.F.);
#185=ORIENTED_EDGE('',*,*,#149,.F.);
#186=ORIENTED_EDGE('',*,*,#145,.T.);
#187=ORIENTED_EDGE('',*,*,#148,.T.);
#188=ORIENTED_EDGE('',*,*,#151,.F.);
#189=ORIENTED_EDGE('',*,*,#152,.T.);
#190=ORIENTED_EDGE('',*,*,#153,.F.);
#191=ORIENTED_EDGE('',*,*,#154,.F.);
#192=ORIENTED_EDGE('',*,*,#155,.F.);
#193=ORIENTED_EDGE('',*,*,#154,.T.);
#194=ORIENTED_EDGE('',*,*,#156,.F.);
#195=ORIENTED_EDGE('',*,*,#157,.F.);
#196=ORIENTED_EDGE('',*,*,#158,.F.);
#197=ORIENTED_EDGE('',*,*,#157,.T.);
#198=ORIENTED_EDGE('',*,*,#159,.F.);
#199=ORIENTED_EDGE('',*,*,#160,.F.);
#200=ORIENTED_EDGE('',*,*,#161,.F.);
#201=ORIENTED_EDGE('',*,*,#160,.T.);
#202=ORIENTED_EDGE('',*,*,#162,.F.);
#203=ORIENTED_EDGE('',*,*,#163,.F.);
#204=ORIENTED_EDGE('',*,*,#164,.F.);
#205=ORIENTED_EDGE('',*,*,#163,.T.);
#206=ORIENTED_EDGE('',*,*,#165,.F.);
#207=ORIENTED_EDGE('',*,*,#166,.F.);
#208=ORIENTED_EDGE('',*,*,#167,.F.);
#209=ORIENTED_EDGE('',*,*,#166,.T.);
#210=ORIENTED_EDGE('',*,*,#168,.F.);
#211=ORIENTED_EDGE('',*,*,#169,.F.);
#212=ORIENTED_EDGE('',*,*,#170,.F.);
#213=ORIENTED_EDGE('',*,*,#169,.T.);
#214=ORIENTED_EDGE('',*,*,#171,.F.);
#215=ORIENTED_EDGE('',*,*,#172,.F.);
#216=ORIENTED_EDGE('',*,*,#173,.T.);
#217=ORIENTED_EDGE('',*,*,#172,.T.);
#218=ORIENTED_EDGE('',*,*,#174,.F.);
#219=ORIENTED_EDGE('',*,*,#175,.F.);
#220=ORIENTED_EDGE('',*,*,#176,.F.);
#221=ORIENTED_EDGE('',*,*,#175,.T.);
#222=ORIENTED_EDGE('',*,*,#177,.F.);
#223=ORIENTED_EDGE('',*,*,#152,.F.);
#224=ORIENTED_EDGE('',*,*,#176,.T.);
#225=ORIENTED_EDGE('',*,*,#151,.T.);
#226=ORIENTED_EDGE('',*,*,#155,.T.);
#227=ORIENTED_EDGE('',*,*,#158,.T.);
#228=ORIENTED_EDGE('',*,*,#161,.T.);
#229=ORIENTED_EDGE('',*,*,#164,.T.);
#230=ORIENTED_EDGE('',*,*,#167,.T.);
#231=ORIENTED_EDGE('',*,*,#170,.T.);
#232=ORIENTED_EDGE('',*,*,#173,.F.);
#233=ORIENTED_EDGE('',*,*,#147,.T.);
#234=ORIENTED_EDGE('',*,*,#177,.T.);
#235=ORIENTED_EDGE('',*,*,#174,.T.);
#236=ORIENTED_EDGE('',*,*,#171,.T.);
#237=ORIENTED_EDGE('',*,*,#168,.T.);
#238=ORIENTED_EDGE('',*,*,#165,.T.);
#239=ORIENTED_EDGE('',*,*,#162,.T.);
#240=ORIENTED_EDGE('',*,*,#159,.T.);
#241=ORIENTED_EDGE('',*,*,#156,.T.);
#242=ORIENTED_EDGE('',*,*,#153,.T.);
#243=ORIENTED_EDGE('',*,*,#150,.T.);
#244=CYLINDRICAL_SURFACE('',#274,3.5);
#245=CYLINDRICAL_SURFACE('',#277,2.5);
#246=ADVANCED_FACE('',(#30),#244,.T.);
#247=ADVANCED_FACE('',(#31),#245,.F.);
#248=ADVANCED_FACE('',(#32,#15),#18,.T.);
#249=ADVANCED_FACE('',(#33),#19,.T.);
#250=ADVANCED_FACE('',(#34),#20,.T.);
#251=ADVANCED_FACE('',(#35),#21,.T.);
#252=ADVANCED_FACE('',(#36),#22,.T.);
#253=ADVANCED_FACE('',(#37),#23,.T.);
#254=ADVANCED_FACE('',(#38),#24,.T.);
#255=ADVANCED_FACE('',(#39),#25,.T.);
#256=ADVANCED_FACE('',(#40),#26,.T.);
#257=ADVANCED_FACE('',(#41),#27,.T.);
#258=ADVANCED_FACE('',(#42,#16),#28,.T.);
#259=ADVANCED_FACE('',(#43,#17),#29,.F.);
#260=CLOSED_SHELL('',(#246,#247,#248,#249,#250,#251,#252,#253,#254,#255,
#256,#257,#258,#259));
#261=DERIVED_UNIT_ELEMENT(#263,1.);
#262=DERIVED_UNIT_ELEMENT(#434,-3.);
#263=(
MASS_UNIT()
NAMED_UNIT(*)
SI_UNIT(.KILO.,.GRAM.)
);
#264=DERIVED_UNIT((#261,#262));
#265=MEASURE_REPRESENTATION_ITEM('density measure',
POSITIVE_RATIO_MEASURE(3400.),#264);
#266=PROPERTY_DEFINITION_REPRESENTATION(#271,#268);
#267=PROPERTY_DEFINITION_REPRESENTATION(#272,#269);
#268=REPRESENTATION('material name',(#270),#431);
#269=REPRESENTATION('density',(#265),#431);
#270=DESCRIPTIVE_REPRESENTATION_ITEM('Porcelain, glazed',
'Porcelain, glazed');
#271=PROPERTY_DEFINITION('material property','material name',#441);
#272=PROPERTY_DEFINITION('material property','density of part',#441);
#273=AXIS2_PLACEMENT_3D('placement',#359,#292,#293);
#274=AXIS2_PLACEMENT_3D('',#360,#294,#295);
#275=AXIS2_PLACEMENT_3D('',#362,#296,#297);
#276=AXIS2_PLACEMENT_3D('',#365,#299,#300);
#277=AXIS2_PLACEMENT_3D('',#366,#301,#302);
#278=AXIS2_PLACEMENT_3D('',#368,#303,#304);
#279=AXIS2_PLACEMENT_3D('',#371,#306,#307);
#280=AXIS2_PLACEMENT_3D('',#372,#308,#309);
#281=AXIS2_PLACEMENT_3D('',#373,#310,#311);
#282=AXIS2_PLACEMENT_3D('',#382,#316,#317);
#283=AXIS2_PLACEMENT_3D('',#388,#321,#322);
#284=AXIS2_PLACEMENT_3D('',#394,#326,#327);
#285=AXIS2_PLACEMENT_3D('',#400,#331,#332);
#286=AXIS2_PLACEMENT_3D('',#406,#336,#337);
#287=AXIS2_PLACEMENT_3D('',#412,#341,#342);
#288=AXIS2_PLACEMENT_3D('',#418,#346,#347);
#289=AXIS2_PLACEMENT_3D('',#424,#351,#352);
#290=AXIS2_PLACEMENT_3D('',#427,#355,#356);
#291=AXIS2_PLACEMENT_3D('',#428,#357,#358);
#292=DIRECTION('axis',(0.,0.,1.));
#293=DIRECTION('refdir',(1.,0.,0.));
#294=DIRECTION('center_axis',(0.,1.,0.));
#295=DIRECTION('ref_axis',(1.,0.,0.));
#296=DIRECTION('center_axis',(0.,1.,0.));
#297=DIRECTION('ref_axis',(1.,0.,0.));
#298=DIRECTION('',(0.,-1.,0.));
#299=DIRECTION('center_axis',(0.,-1.,0.));
#300=DIRECTION('ref_axis',(1.,0.,0.));
#301=DIRECTION('center_axis',(0.,1.,0.));
#302=DIRECTION('ref_axis',(1.,0.,0.));
#303=DIRECTION('center_axis',(0.,-1.,0.));
#304=DIRECTION('ref_axis',(1.,0.,0.));
#305=DIRECTION('',(0.,-1.,0.));
#306=DIRECTION('center_axis',(0.,1.,0.));
#307=DIRECTION('ref_axis',(1.,0.,0.));
#308=DIRECTION('center_axis',(0.,1.,0.));
#309=DIRECTION('ref_axis',(1.,0.,0.));
#310=DIRECTION('center_axis',(-0.500000000000003,0.,0.866025403784437));
#311=DIRECTION('ref_axis',(-0.866025403784437,0.,-0.500000000000003));
#312=DIRECTION('',(0.866025403784437,0.,0.500000000000003));
#313=DIRECTION('',(0.,-1.,0.));
#314=DIRECTION('',(-0.866025403784437,0.,-0.500000000000003));
#315=DIRECTION('',(0.,-1.,0.));
#316=DIRECTION('center_axis',(0.499999999999997,0.,0.866025403784441));
#317=DIRECTION('ref_axis',(-0.866025403784441,0.,0.499999999999997));
#318=DIRECTION('',(0.86602540378444,0.,-0.499999999999997));
#319=DIRECTION('',(-0.86602540378444,0.,0.499999999999997));
#320=DIRECTION('',(0.,-1.,0.));
#321=DIRECTION('center_axis',(1.,0.,3.84592537276713E-15));
#322=DIRECTION('ref_axis',(-3.84592537276713E-15,0.,1.));
#323=DIRECTION('',(3.84592537276713E-15,0.,-1.));
#324=DIRECTION('',(-3.84592537276713E-15,0.,1.));
#325=DIRECTION('',(0.,-1.,0.));
#326=DIRECTION('center_axis',(0.500000000000003,0.,-0.866025403784437));
#327=DIRECTION('ref_axis',(0.866025403784437,0.,0.500000000000003));
#328=DIRECTION('',(-0.866025403784437,0.,-0.500000000000003));
#329=DIRECTION('',(0.866025403784437,0.,0.500000000000003));
#330=DIRECTION('',(0.,-1.,0.));
#331=DIRECTION('center_axis',(-0.499999999999997,0.,-0.86602540378444));
#332=DIRECTION('ref_axis',(0.86602540378444,0.,-0.499999999999997));
#333=DIRECTION('',(-0.86602540378444,0.,0.499999999999997));
#334=DIRECTION('',(0.86602540378444,0.,-0.499999999999997));
#335=DIRECTION('',(0.,-1.,0.));
#336=DIRECTION('center_axis',(-1.,0.,-3.84592537276713E-15));
#337=DIRECTION('ref_axis',(3.84592537276713E-15,0.,-1.));
#338=DIRECTION('',(-3.84592537276713E-15,0.,1.));
#339=DIRECTION('',(3.84592537276713E-15,0.,-1.));
#340=DIRECTION('',(0.,-1.,0.));
#341=DIRECTION('center_axis',(-0.856484027948304,0.,0.516173526897156));
#342=DIRECTION('ref_axis',(-0.516173526897155,0.,-0.856484027948304));
#343=DIRECTION('',(0.516173526897155,0.,0.856484027948304));
#344=DIRECTION('',(-0.516173526897155,0.,-0.856484027948304));
#345=DIRECTION('',(0.,-1.,0.));
#346=DIRECTION('center_axis',(-0.865362051465949,0.,-0.501147203806071));
#347=DIRECTION('ref_axis',(0.501147203806071,0.,-0.865362051465949));
#348=DIRECTION('',(0.501147203806071,0.,-0.865362051465949));
#349=DIRECTION('',(0.501147203806071,0.,-0.865362051465949));
#350=DIRECTION('',(0.,-1.,0.));
#351=DIRECTION('center_axis',(-1.,0.,-3.84592537276713E-15));
#352=DIRECTION('ref_axis',(3.84592537276713E-15,0.,-1.));
#353=DIRECTION('',(-3.84592537276713E-15,0.,1.));
#354=DIRECTION('',(3.84592537276713E-15,0.,-1.));
#355=DIRECTION('center_axis',(0.,1.,0.));
#356=DIRECTION('ref_axis',(1.,0.,0.));
#357=DIRECTION('center_axis',(0.,1.,0.));
#358=DIRECTION('ref_axis',(1.,0.,0.));
#359=CARTESIAN_POINT('',(0.,0.,0.));
#360=CARTESIAN_POINT('Origin',(19.4782846259638,0.,1.43169409484577));
#361=CARTESIAN_POINT('',(15.9782846259638,2.5,1.43169409484577));
#362=CARTESIAN_POINT('Origin',(19.4782846259638,2.5,1.43169409484577));
#363=CARTESIAN_POINT('',(15.9782846259638,0.,1.43169409484577));
#364=CARTESIAN_POINT('',(15.9782846259638,0.,1.43169409484577));
#365=CARTESIAN_POINT('Origin',(19.4782846259638,0.,1.43169409484577));
#366=CARTESIAN_POINT('Origin',(18.6782846259638,0.,1.43169409484577));
#367=CARTESIAN_POINT('',(16.1782846259638,2.5,1.43169409484577));
#368=CARTESIAN_POINT('Origin',(18.6782846259638,2.5,1.43169409484577));
#369=CARTESIAN_POINT('',(16.1782846259638,-6.,1.43169409484577));
#370=CARTESIAN_POINT('',(16.1782846259638,0.,1.43169409484577));
#371=CARTESIAN_POINT('Origin',(18.6782846259638,-6.,1.43169409484577));
#372=CARTESIAN_POINT('Origin',(19.4782846259638,2.5,1.43169409484577));
#373=CARTESIAN_POINT('Origin',(19.4782846259637,0.,7.20519678674203));
#374=CARTESIAN_POINT('',(14.4782846259638,0.,4.31844544079389));
#375=CARTESIAN_POINT('',(19.4782846259637,0.,7.20519678674203));
#376=CARTESIAN_POINT('',(14.4782846259638,0.,4.31844544079389));
#377=CARTESIAN_POINT('',(14.4782846259638,-6.,4.31844544079389));
#378=CARTESIAN_POINT('',(14.4782846259638,0.,4.31844544079389));
#379=CARTESIAN_POINT('',(19.4782846259637,-6.,7.20519678674203));
#380=CARTESIAN_POINT('',(14.4782846259638,-6.,4.31844544079389));
#381=CARTESIAN_POINT('',(19.4782846259637,0.,7.20519678674203));
#382=CARTESIAN_POINT('Origin',(24.4782846259638,0.,4.31844544079392));
#383=CARTESIAN_POINT('',(24.4782846259638,0.,4.31844544079392));
#384=CARTESIAN_POINT('',(19.4782846259637,0.,7.20519678674203));
#385=CARTESIAN_POINT('',(24.4782846259638,-6.,4.31844544079392));
#386=CARTESIAN_POINT('',(19.4782846259637,-6.,7.20519678674203));
#387=CARTESIAN_POINT('',(24.4782846259638,0.,4.31844544079392));
#388=CARTESIAN_POINT('Origin',(24.4782846259638,0.,-1.45505725110234));
#389=CARTESIAN_POINT('',(24.4782846259638,0.,-1.45505725110234));
#390=CARTESIAN_POINT('',(24.4782846259638,0.,4.31844544079392));
#391=CARTESIAN_POINT('',(24.4782846259638,-6.,-1.45505725110234));
#392=CARTESIAN_POINT('',(24.4782846259638,-6.,4.31844544079392));
#393=CARTESIAN_POINT('',(24.4782846259638,0.,-1.45505725110234));
#394=CARTESIAN_POINT('Origin',(19.4782846259638,0.,-4.34180859705049));
#395=CARTESIAN_POINT('',(19.4782846259638,0.,-4.34180859705049));
#396=CARTESIAN_POINT('',(24.4782846259638,0.,-1.45505725110234));
#397=CARTESIAN_POINT('',(19.4782846259638,-6.,-4.34180859705049));
#398=CARTESIAN_POINT('',(24.4782846259638,-6.,-1.45505725110234));
#399=CARTESIAN_POINT('',(19.4782846259638,0.,-4.34180859705049));
#400=CARTESIAN_POINT('Origin',(14.4782846259638,0.,-1.45505725110237));
#401=CARTESIAN_POINT('',(14.4782846259638,0.,-1.45505725110237));
#402=CARTESIAN_POINT('',(19.4782846259638,0.,-4.34180859705049));
#403=CARTESIAN_POINT('',(14.4782846259638,-6.,-1.45505725110237));
#404=CARTESIAN_POINT('',(19.4782846259638,-6.,-4.34180859705049));
#405=CARTESIAN_POINT('',(14.4782846259638,0.,-1.45505725110237));
#406=CARTESIAN_POINT('Origin',(14.4782846259638,0.,0.703527338379297));
#407=CARTESIAN_POINT('',(14.4782846259638,0.,0.703527338379297));
#408=CARTESIAN_POINT('',(14.4782846259638,0.,-1.45505725110237));
#409=CARTESIAN_POINT('',(14.4782846259638,-6.,0.703527338379297));
#410=CARTESIAN_POINT('',(14.4782846259638,-6.,-1.45505725110237));
#411=CARTESIAN_POINT('',(14.4782846259638,0.,0.703527338379297));
#412=CARTESIAN_POINT('Origin',(14.9148297790619,0.,1.42788442300997));
#413=CARTESIAN_POINT('',(14.9148297790619,0.,1.42788442300997));
#414=CARTESIAN_POINT('',(14.4651953211358,0.,0.681808323478461));
#415=CARTESIAN_POINT('',(14.9148297790619,-6.,1.42788442300997));
#416=CARTESIAN_POINT('',(14.4651953211358,-6.,0.681808323478461));
#417=CARTESIAN_POINT('',(14.9148297790619,0.,1.42788442300997));
#418=CARTESIAN_POINT('Origin',(14.4782846259638,0.,2.18169409484576));
#419=CARTESIAN_POINT('',(14.4782846259638,0.,2.18169409484576));
#420=CARTESIAN_POINT('',(14.4782846259638,0.,2.18169409484576));
#421=CARTESIAN_POINT('',(14.4782846259638,-6.,2.18169409484576));
#422=CARTESIAN_POINT('',(14.4782846259638,-6.,2.18169409484576));
#423=CARTESIAN_POINT('',(14.4782846259638,0.,2.18169409484576));
#424=CARTESIAN_POINT('Origin',(14.4782846259638,0.,4.31844544079389));
#425=CARTESIAN_POINT('',(14.4782846259638,0.,-1.45505725110237));
#426=CARTESIAN_POINT('',(14.4782846259638,-6.,-1.45505725110237));
#427=CARTESIAN_POINT('Origin',(19.4782846259638,0.,1.43169409484577));
#428=CARTESIAN_POINT('Origin',(19.4782846259638,-6.,1.43169409484577));
#429=UNCERTAINTY_MEASURE_WITH_UNIT(LENGTH_MEASURE(0.01),#433,
'DISTANCE_ACCURACY_VALUE',
'Maximum model space distance between geometric entities at asserted c
onnectivities');
#430=UNCERTAINTY_MEASURE_WITH_UNIT(LENGTH_MEASURE(0.01),#433,
'DISTANCE_ACCURACY_VALUE',
'Maximum model space distance between geometric entities at asserted c
onnectivities');
#431=(
GEOMETRIC_REPRESENTATION_CONTEXT(3)
GLOBAL_UNCERTAINTY_ASSIGNED_CONTEXT((#429))
GLOBAL_UNIT_ASSIGNED_CONTEXT((#433,#435,#436))
REPRESENTATION_CONTEXT('','3D')
);
#432=(
GEOMETRIC_REPRESENTATION_CONTEXT(3)
GLOBAL_UNCERTAINTY_ASSIGNED_CONTEXT((#430))
GLOBAL_UNIT_ASSIGNED_CONTEXT((#433,#435,#436))
REPRESENTATION_CONTEXT('','3D')
);
#433=(
LENGTH_UNIT()
NAMED_UNIT(*)
SI_UNIT(.MILLI.,.METRE.)
);
#434=(
LENGTH_UNIT()
NAMED_UNIT(*)
SI_UNIT($,.METRE.)
);
#435=(
NAMED_UNIT(*)
PLANE_ANGLE_UNIT()
SI_UNIT($,.RADIAN.)
);
#436=(
NAMED_UNIT(*)
SI_UNIT($,.STERADIAN.)
SOLID_ANGLE_UNIT()
);
#437=SHAPE_DEFINITION_REPRESENTATION(#438,#439);
#438=PRODUCT_DEFINITION_SHAPE('',$,#441);
#439=SHAPE_REPRESENTATION('',(#273),#431);
#440=PRODUCT_DEFINITION_CONTEXT('part definition',#445,'design');
#441=PRODUCT_DEFINITION('Sharplayers_8596531012190',
'Sharplayers_8596531012190 v1',#442,#440);
#442=PRODUCT_DEFINITION_FORMATION('',$,#447);
#443=PRODUCT_RELATED_PRODUCT_CATEGORY('Sharplayers_8596531012190 v1',
'Sharplayers_8596531012190 v1',(#447));
#444=APPLICATION_PROTOCOL_DEFINITION('international standard',
'automotive_design',2009,#445);
#445=APPLICATION_CONTEXT(
'Core Data for Automotive Mechanical Design Process');
#446=PRODUCT_CONTEXT('part definition',#445,'mechanical');
#447=PRODUCT('Sharplayers_8596531012190','Sharplayers_8596531012190 v1',
$,(#446));
#448=PRESENTATION_STYLE_ASSIGNMENT((#449));
#449=SURFACE_STYLE_USAGE(.BOTH.,#450);
#450=SURFACE_SIDE_STYLE('',(#451));
#451=SURFACE_STYLE_FILL_AREA(#452);
#452=FILL_AREA_STYLE('Paint - Enamel Glossy (White)',(#453));
#453=FILL_AREA_STYLE_COLOUR('Paint - Enamel Glossy (White)',#454);
#454=COLOUR_RGB('Paint - Enamel Glossy (White)',0.964705882352941,0.964705882352941,
0.952941176470588);
ENDSEC;
END-ISO-10303-21;
