ISO-10303-21;
HEADER;
/* Generated by software containing ST-Developer
 * from STEP Tools, Inc. (www.steptools.com) 
 */

FILE_DESCRIPTION(
/* description */ (''),
/* implementation_level */ '2;1');

FILE_NAME(
/* name */ 'C:/Users/capra/Desktop/Sharplayers_8596531012183.step',
/* time_stamp */ '2022-01-21T17:42:03+01:00',
/* author */ (''),
/* organization */ (''),
/* preprocessor_version */ 'ST-DEVELOPER v18.1',
/* originating_system */ 'Autodesk Translation Framework v10.10.0.1391',

/* authorisation */ '');

FILE_SCHEMA (('AUTOMOTIVE_DESIGN { 1 0 10303 214 3 1 1 }'));
ENDSEC;

DATA;
#10=MECHANICAL_DESIGN_GEOMETRIC_PRESENTATION_REPRESENTATION('',(#13),#378);
#11=SHAPE_REPRESENTATION_RELATIONSHIP('SRR','None',#385,#12);
#12=ADVANCED_BREP_SHAPE_REPRESENTATION('',(#14),#377);
#13=STYLED_ITEM('',(#394),#14);
#14=MANIFOLD_SOLID_BREP('Body1',#222);
#15=FACE_BOUND('',#45,.T.);
#16=FACE_BOUND('',#47,.T.);
#17=FACE_BOUND('',#50,.T.);
#18=FACE_BOUND('',#58,.T.);
#19=PLANE('',#242);
#20=PLANE('',#243);
#21=PLANE('',#247);
#22=PLANE('',#248);
#23=PLANE('',#249);
#24=PLANE('',#250);
#25=PLANE('',#251);
#26=PLANE('',#252);
#27=PLANE('',#253);
#28=PLANE('',#254);
#29=FACE_OUTER_BOUND('',#42,.T.);
#30=FACE_OUTER_BOUND('',#43,.T.);
#31=FACE_OUTER_BOUND('',#44,.T.);
#32=FACE_OUTER_BOUND('',#46,.T.);
#33=FACE_OUTER_BOUND('',#48,.T.);
#34=FACE_OUTER_BOUND('',#49,.T.);
#35=FACE_OUTER_BOUND('',#51,.T.);
#36=FACE_OUTER_BOUND('',#52,.T.);
#37=FACE_OUTER_BOUND('',#53,.T.);
#38=FACE_OUTER_BOUND('',#54,.T.);
#39=FACE_OUTER_BOUND('',#55,.T.);
#40=FACE_OUTER_BOUND('',#56,.T.);
#41=FACE_OUTER_BOUND('',#57,.T.);
#42=EDGE_LOOP('',(#152,#153,#154,#155));
#43=EDGE_LOOP('',(#156,#157,#158,#159));
#44=EDGE_LOOP('',(#160));
#45=EDGE_LOOP('',(#161));
#46=EDGE_LOOP('',(#162));
#47=EDGE_LOOP('',(#163,#164,#165,#166,#167,#168));
#48=EDGE_LOOP('',(#169,#170,#171,#172));
#49=EDGE_LOOP('',(#173));
#50=EDGE_LOOP('',(#174));
#51=EDGE_LOOP('',(#175,#176,#177,#178));
#52=EDGE_LOOP('',(#179,#180,#181,#182));
#53=EDGE_LOOP('',(#183,#184,#185,#186));
#54=EDGE_LOOP('',(#187,#188,#189,#190));
#55=EDGE_LOOP('',(#191,#192,#193,#194));
#56=EDGE_LOOP('',(#195,#196,#197,#198));
#57=EDGE_LOOP('',(#199,#200,#201,#202,#203,#204));
#58=EDGE_LOOP('',(#205));
#59=LINE('',#321,#80);
#60=LINE('',#327,#81);
#61=LINE('',#335,#82);
#62=LINE('',#337,#83);
#63=LINE('',#339,#84);
#64=LINE('',#341,#85);
#65=LINE('',#343,#86);
#66=LINE('',#344,#87);
#67=LINE('',#348,#88);
#68=LINE('',#352,#89);
#69=LINE('',#354,#90);
#70=LINE('',#355,#91);
#71=LINE('',#358,#92);
#72=LINE('',#359,#93);
#73=LINE('',#362,#94);
#74=LINE('',#363,#95);
#75=LINE('',#366,#96);
#76=LINE('',#367,#97);
#77=LINE('',#370,#98);
#78=LINE('',#371,#99);
#79=LINE('',#373,#100);
#80=VECTOR('',#261,3.5);
#81=VECTOR('',#268,2.5);
#82=VECTOR('',#277,10.);
#83=VECTOR('',#278,10.);
#84=VECTOR('',#279,10.);
#85=VECTOR('',#280,10.);
#86=VECTOR('',#281,10.);
#87=VECTOR('',#282,10.);
#88=VECTOR('',#287,5.);
#89=VECTOR('',#292,10.);
#90=VECTOR('',#293,10.);
#91=VECTOR('',#294,10.);
#92=VECTOR('',#297,10.);
#93=VECTOR('',#298,10.);
#94=VECTOR('',#301,10.);
#95=VECTOR('',#302,10.);
#96=VECTOR('',#305,10.);
#97=VECTOR('',#306,10.);
#98=VECTOR('',#309,10.);
#99=VECTOR('',#310,10.);
#100=VECTOR('',#313,10.);
#101=CIRCLE('',#237,3.5);
#102=CIRCLE('',#238,3.5);
#103=CIRCLE('',#240,2.5);
#104=CIRCLE('',#241,2.5);
#105=CIRCLE('',#244,5.);
#106=CIRCLE('',#246,5.);
#107=VERTEX_POINT('',#318);
#108=VERTEX_POINT('',#320);
#109=VERTEX_POINT('',#324);
#110=VERTEX_POINT('',#326);
#111=VERTEX_POINT('',#331);
#112=VERTEX_POINT('',#333);
#113=VERTEX_POINT('',#334);
#114=VERTEX_POINT('',#336);
#115=VERTEX_POINT('',#338);
#116=VERTEX_POINT('',#340);
#117=VERTEX_POINT('',#342);
#118=VERTEX_POINT('',#346);
#119=VERTEX_POINT('',#351);
#120=VERTEX_POINT('',#353);
#121=VERTEX_POINT('',#357);
#122=VERTEX_POINT('',#361);
#123=VERTEX_POINT('',#365);
#124=VERTEX_POINT('',#369);
#125=EDGE_CURVE('',#107,#107,#101,.T.);
#126=EDGE_CURVE('',#107,#108,#59,.T.);
#127=EDGE_CURVE('',#108,#108,#102,.T.);
#128=EDGE_CURVE('',#109,#109,#103,.T.);
#129=EDGE_CURVE('',#109,#110,#60,.T.);
#130=EDGE_CURVE('',#110,#110,#104,.T.);
#131=EDGE_CURVE('',#111,#111,#105,.T.);
#132=EDGE_CURVE('',#112,#113,#61,.T.);
#133=EDGE_CURVE('',#113,#114,#62,.T.);
#134=EDGE_CURVE('',#114,#115,#63,.T.);
#135=EDGE_CURVE('',#115,#116,#64,.T.);
#136=EDGE_CURVE('',#116,#117,#65,.T.);
#137=EDGE_CURVE('',#117,#112,#66,.T.);
#138=EDGE_CURVE('',#118,#118,#106,.T.);
#139=EDGE_CURVE('',#118,#111,#67,.T.);
#140=EDGE_CURVE('',#112,#119,#68,.T.);
#141=EDGE_CURVE('',#120,#119,#69,.T.);
#142=EDGE_CURVE('',#113,#120,#70,.T.);
#143=EDGE_CURVE('',#121,#120,#71,.T.);
#144=EDGE_CURVE('',#114,#121,#72,.T.);
#145=EDGE_CURVE('',#122,#121,#73,.T.);
#146=EDGE_CURVE('',#115,#122,#74,.T.);
#147=EDGE_CURVE('',#123,#122,#75,.T.);
#148=EDGE_CURVE('',#116,#123,#76,.T.);
#149=EDGE_CURVE('',#124,#123,#77,.T.);
#150=EDGE_CURVE('',#117,#124,#78,.T.);
#151=EDGE_CURVE('',#119,#124,#79,.T.);
#152=ORIENTED_EDGE('',*,*,#125,.F.);
#153=ORIENTED_EDGE('',*,*,#126,.T.);
#154=ORIENTED_EDGE('',*,*,#127,.F.);
#155=ORIENTED_EDGE('',*,*,#126,.F.);
#156=ORIENTED_EDGE('',*,*,#128,.F.);
#157=ORIENTED_EDGE('',*,*,#129,.T.);
#158=ORIENTED_EDGE('',*,*,#130,.F.);
#159=ORIENTED_EDGE('',*,*,#129,.F.);
#160=ORIENTED_EDGE('',*,*,#125,.T.);
#161=ORIENTED_EDGE('',*,*,#128,.T.);
#162=ORIENTED_EDGE('',*,*,#131,.F.);
#163=ORIENTED_EDGE('',*,*,#132,.T.);
#164=ORIENTED_EDGE('',*,*,#133,.T.);
#165=ORIENTED_EDGE('',*,*,#134,.T.);
#166=ORIENTED_EDGE('',*,*,#135,.T.);
#167=ORIENTED_EDGE('',*,*,#136,.T.);
#168=ORIENTED_EDGE('',*,*,#137,.T.);
#169=ORIENTED_EDGE('',*,*,#138,.F.);
#170=ORIENTED_EDGE('',*,*,#139,.T.);
#171=ORIENTED_EDGE('',*,*,#131,.T.);
#172=ORIENTED_EDGE('',*,*,#139,.F.);
#173=ORIENTED_EDGE('',*,*,#138,.T.);
#174=ORIENTED_EDGE('',*,*,#127,.T.);
#175=ORIENTED_EDGE('',*,*,#132,.F.);
#176=ORIENTED_EDGE('',*,*,#140,.T.);
#177=ORIENTED_EDGE('',*,*,#141,.F.);
#178=ORIENTED_EDGE('',*,*,#142,.F.);
#179=ORIENTED_EDGE('',*,*,#133,.F.);
#180=ORIENTED_EDGE('',*,*,#142,.T.);
#181=ORIENTED_EDGE('',*,*,#143,.F.);
#182=ORIENTED_EDGE('',*,*,#144,.F.);
#183=ORIENTED_EDGE('',*,*,#134,.F.);
#184=ORIENTED_EDGE('',*,*,#144,.T.);
#185=ORIENTED_EDGE('',*,*,#145,.F.);
#186=ORIENTED_EDGE('',*,*,#146,.F.);
#187=ORIENTED_EDGE('',*,*,#135,.F.);
#188=ORIENTED_EDGE('',*,*,#146,.T.);
#189=ORIENTED_EDGE('',*,*,#147,.F.);
#190=ORIENTED_EDGE('',*,*,#148,.F.);
#191=ORIENTED_EDGE('',*,*,#136,.F.);
#192=ORIENTED_EDGE('',*,*,#148,.T.);
#193=ORIENTED_EDGE('',*,*,#149,.F.);
#194=ORIENTED_EDGE('',*,*,#150,.F.);
#195=ORIENTED_EDGE('',*,*,#137,.F.);
#196=ORIENTED_EDGE('',*,*,#150,.T.);
#197=ORIENTED_EDGE('',*,*,#151,.F.);
#198=ORIENTED_EDGE('',*,*,#140,.F.);
#199=ORIENTED_EDGE('',*,*,#151,.T.);
#200=ORIENTED_EDGE('',*,*,#149,.T.);
#201=ORIENTED_EDGE('',*,*,#147,.T.);
#202=ORIENTED_EDGE('',*,*,#145,.T.);
#203=ORIENTED_EDGE('',*,*,#143,.T.);
#204=ORIENTED_EDGE('',*,*,#141,.T.);
#205=ORIENTED_EDGE('',*,*,#130,.T.);
#206=CYLINDRICAL_SURFACE('',#236,3.5);
#207=CYLINDRICAL_SURFACE('',#239,2.5);
#208=CYLINDRICAL_SURFACE('',#245,5.);
#209=ADVANCED_FACE('',(#29),#206,.T.);
#210=ADVANCED_FACE('',(#30),#207,.F.);
#211=ADVANCED_FACE('',(#31,#15),#19,.T.);
#212=ADVANCED_FACE('',(#32,#16),#20,.F.);
#213=ADVANCED_FACE('',(#33),#208,.T.);
#214=ADVANCED_FACE('',(#34,#17),#21,.T.);
#215=ADVANCED_FACE('',(#35),#22,.T.);
#216=ADVANCED_FACE('',(#36),#23,.T.);
#217=ADVANCED_FACE('',(#37),#24,.T.);
#218=ADVANCED_FACE('',(#38),#25,.T.);
#219=ADVANCED_FACE('',(#39),#26,.T.);
#220=ADVANCED_FACE('',(#40),#27,.T.);
#221=ADVANCED_FACE('',(#41,#18),#28,.F.);
#222=CLOSED_SHELL('',(#209,#210,#211,#212,#213,#214,#215,#216,#217,#218,
#219,#220,#221));
#223=DERIVED_UNIT_ELEMENT(#225,1.);
#224=DERIVED_UNIT_ELEMENT(#380,-3.);
#225=(
MASS_UNIT()
NAMED_UNIT(*)
SI_UNIT(.KILO.,.GRAM.)
);
#226=DERIVED_UNIT((#223,#224));
#227=MEASURE_REPRESENTATION_ITEM('density measure',
POSITIVE_RATIO_MEASURE(3400.),#226);
#228=PROPERTY_DEFINITION_REPRESENTATION(#233,#230);
#229=PROPERTY_DEFINITION_REPRESENTATION(#234,#231);
#230=REPRESENTATION('material name',(#232),#377);
#231=REPRESENTATION('density',(#227),#377);
#232=DESCRIPTIVE_REPRESENTATION_ITEM('Porcelain, glazed',
'Porcelain, glazed');
#233=PROPERTY_DEFINITION('material property','material name',#387);
#234=PROPERTY_DEFINITION('material property','density of part',#387);
#235=AXIS2_PLACEMENT_3D('placement',#316,#255,#256);
#236=AXIS2_PLACEMENT_3D('',#317,#257,#258);
#237=AXIS2_PLACEMENT_3D('',#319,#259,#260);
#238=AXIS2_PLACEMENT_3D('',#322,#262,#263);
#239=AXIS2_PLACEMENT_3D('',#323,#264,#265);
#240=AXIS2_PLACEMENT_3D('',#325,#266,#267);
#241=AXIS2_PLACEMENT_3D('',#328,#269,#270);
#242=AXIS2_PLACEMENT_3D('',#329,#271,#272);
#243=AXIS2_PLACEMENT_3D('',#330,#273,#274);
#244=AXIS2_PLACEMENT_3D('',#332,#275,#276);
#245=AXIS2_PLACEMENT_3D('',#345,#283,#284);
#246=AXIS2_PLACEMENT_3D('',#347,#285,#286);
#247=AXIS2_PLACEMENT_3D('',#349,#288,#289);
#248=AXIS2_PLACEMENT_3D('',#350,#290,#291);
#249=AXIS2_PLACEMENT_3D('',#356,#295,#296);
#250=AXIS2_PLACEMENT_3D('',#360,#299,#300);
#251=AXIS2_PLACEMENT_3D('',#364,#303,#304);
#252=AXIS2_PLACEMENT_3D('',#368,#307,#308);
#253=AXIS2_PLACEMENT_3D('',#372,#311,#312);
#254=AXIS2_PLACEMENT_3D('',#374,#314,#315);
#255=DIRECTION('axis',(0.,0.,1.));
#256=DIRECTION('refdir',(1.,0.,0.));
#257=DIRECTION('center_axis',(0.,1.,0.));
#258=DIRECTION('ref_axis',(1.,0.,0.));
#259=DIRECTION('center_axis',(0.,1.,0.));
#260=DIRECTION('ref_axis',(1.,0.,0.));
#261=DIRECTION('',(0.,-1.,0.));
#262=DIRECTION('center_axis',(0.,-1.,0.));
#263=DIRECTION('ref_axis',(1.,0.,0.));
#264=DIRECTION('center_axis',(0.,1.,0.));
#265=DIRECTION('ref_axis',(1.,0.,0.));
#266=DIRECTION('center_axis',(0.,-1.,0.));
#267=DIRECTION('ref_axis',(1.,0.,0.));
#268=DIRECTION('',(0.,-1.,0.));
#269=DIRECTION('center_axis',(0.,1.,0.));
#270=DIRECTION('ref_axis',(1.,0.,0.));
#271=DIRECTION('center_axis',(0.,1.,0.));
#272=DIRECTION('ref_axis',(1.,0.,0.));
#273=DIRECTION('center_axis',(0.,1.,0.));
#274=DIRECTION('ref_axis',(1.,0.,0.));
#275=DIRECTION('center_axis',(0.,1.,0.));
#276=DIRECTION('ref_axis',(1.,0.,0.));
#277=DIRECTION('',(-0.848279846214892,0.,-0.529548206026269));
#278=DIRECTION('',(-0.882742122054671,0.,0.469857793327319));
#279=DIRECTION('',(-0.0344622758397786,0.,0.999405999353588));
#280=DIRECTION('',(0.848279846214892,0.,0.529548206026269));
#281=DIRECTION('',(0.88274212205467,0.,-0.469857793327319));
#282=DIRECTION('',(0.0344622758397786,0.,-0.999405999353588));
#283=DIRECTION('center_axis',(0.,1.,0.));
#284=DIRECTION('ref_axis',(1.,0.,0.));
#285=DIRECTION('center_axis',(0.,1.,0.));
#286=DIRECTION('ref_axis',(1.,0.,0.));
#287=DIRECTION('',(0.,-1.,0.));
#288=DIRECTION('center_axis',(0.,1.,0.));
#289=DIRECTION('ref_axis',(1.,0.,0.));
#290=DIRECTION('center_axis',(0.529548206026269,0.,-0.848279846214892));
#291=DIRECTION('ref_axis',(0.848279846214892,0.,0.529548206026269));
#292=DIRECTION('',(0.,-1.,0.));
#293=DIRECTION('',(0.848279846214892,0.,0.529548206026269));
#294=DIRECTION('',(0.,-1.,0.));
#295=DIRECTION('center_axis',(-0.469857793327319,0.,-0.882742122054671));
#296=DIRECTION('ref_axis',(0.882742122054671,0.,-0.469857793327319));
#297=DIRECTION('',(0.882742122054671,0.,-0.469857793327319));
#298=DIRECTION('',(0.,-1.,0.));
#299=DIRECTION('center_axis',(-0.999405999353588,0.,-0.0344622758397786));
#300=DIRECTION('ref_axis',(0.0344622758397786,0.,-0.999405999353588));
#301=DIRECTION('',(0.0344622758397786,0.,-0.999405999353588));
#302=DIRECTION('',(0.,-1.,0.));
#303=DIRECTION('center_axis',(-0.529548206026269,0.,0.848279846214892));
#304=DIRECTION('ref_axis',(-0.848279846214892,0.,-0.529548206026269));
#305=DIRECTION('',(-0.848279846214892,0.,-0.529548206026269));
#306=DIRECTION('',(0.,-1.,0.));
#307=DIRECTION('center_axis',(0.469857793327319,0.,0.882742122054671));
#308=DIRECTION('ref_axis',(-0.88274212205467,0.,0.469857793327319));
#309=DIRECTION('',(-0.88274212205467,0.,0.469857793327319));
#310=DIRECTION('',(0.,-1.,0.));
#311=DIRECTION('center_axis',(0.999405999353588,0.,0.0344622758397786));
#312=DIRECTION('ref_axis',(-0.0344622758397786,0.,0.999405999353588));
#313=DIRECTION('',(-0.0344622758397786,0.,0.999405999353588));
#314=DIRECTION('center_axis',(0.,1.,0.));
#315=DIRECTION('ref_axis',(1.,0.,0.));
#316=CARTESIAN_POINT('',(0.,0.,0.));
#317=CARTESIAN_POINT('Origin',(34.8981232343776,0.,-1.57005346940008));
#318=CARTESIAN_POINT('',(31.3981232343776,3.,-1.57005346940008));
#319=CARTESIAN_POINT('Origin',(34.8981232343776,3.,-1.57005346940008));
#320=CARTESIAN_POINT('',(31.3981232343776,1.,-1.57005346940008));
#321=CARTESIAN_POINT('',(31.3981232343776,0.,-1.57005346940008));
#322=CARTESIAN_POINT('Origin',(34.8981232343776,1.,-1.57005346940008));
#323=CARTESIAN_POINT('Origin',(34.0987172350241,0.,-1.59761919351572));
#324=CARTESIAN_POINT('',(31.5987172350241,3.,-1.59761919351572));
#325=CARTESIAN_POINT('Origin',(34.0987172350241,3.,-1.59761919351572));
#326=CARTESIAN_POINT('',(31.5987172350241,-5.,-1.59761919351572));
#327=CARTESIAN_POINT('',(31.5987172350241,0.,-1.59761919351572));
#328=CARTESIAN_POINT('Origin',(34.0987172350241,-5.,-1.59761919351572));
#329=CARTESIAN_POINT('Origin',(34.8981232343776,3.,-1.57005346940008));
#330=CARTESIAN_POINT('Origin',(34.8981232343776,0.,-1.57005346940008));
#331=CARTESIAN_POINT('',(29.8981232343776,0.,-1.57005346940008));
#332=CARTESIAN_POINT('Origin',(34.8981232343776,0.,-1.57005346940008));
#333=CARTESIAN_POINT('',(38.9753344487239,0.,-3.74023365706705));
#334=CARTESIAN_POINT('',(35.0572976682415,0.,-6.18611205145225));
#335=CARTESIAN_POINT('',(38.9753344487239,0.,-3.74023365706705));
#336=CARTESIAN_POINT('',(30.9800864538952,0.,-4.01593186378528));
#337=CARTESIAN_POINT('',(35.0572976682415,0.,-6.18611205145225));
#338=CARTESIAN_POINT('',(30.8209120200314,0.,0.60012671826689));
#339=CARTESIAN_POINT('',(30.9800864538952,0.,-4.01593186378528));
#340=CARTESIAN_POINT('',(34.7389488005138,0.,3.04600511265209));
#341=CARTESIAN_POINT('',(30.8209120200314,0.,0.60012671826689));
#342=CARTESIAN_POINT('',(38.8161600148601,0.,0.87582492498512));
#343=CARTESIAN_POINT('',(34.7389488005138,0.,3.04600511265209));
#344=CARTESIAN_POINT('',(38.8161600148601,0.,0.87582492498512));
#345=CARTESIAN_POINT('Origin',(34.8981232343776,0.,-1.57005346940008));
#346=CARTESIAN_POINT('',(29.8981232343776,1.,-1.57005346940008));
#347=CARTESIAN_POINT('Origin',(34.8981232343776,1.,-1.57005346940008));
#348=CARTESIAN_POINT('',(29.8981232343776,0.,-1.57005346940008));
#349=CARTESIAN_POINT('Origin',(34.8981232343776,1.,-1.57005346940008));
#350=CARTESIAN_POINT('Origin',(35.0572976682415,0.,-6.18611205145225));
#351=CARTESIAN_POINT('',(38.9753344487239,-5.,-3.74023365706705));
#352=CARTESIAN_POINT('',(38.9753344487239,0.,-3.74023365706705));
#353=CARTESIAN_POINT('',(35.0572976682415,-5.,-6.18611205145225));
#354=CARTESIAN_POINT('',(38.9753344487239,-5.,-3.74023365706705));
#355=CARTESIAN_POINT('',(35.0572976682415,0.,-6.18611205145225));
#356=CARTESIAN_POINT('Origin',(30.9800864538952,0.,-4.01593186378528));
#357=CARTESIAN_POINT('',(30.9800864538952,-5.,-4.01593186378528));
#358=CARTESIAN_POINT('',(35.0572976682415,-5.,-6.18611205145225));
#359=CARTESIAN_POINT('',(30.9800864538952,0.,-4.01593186378528));
#360=CARTESIAN_POINT('Origin',(30.8209120200314,0.,0.60012671826689));
#361=CARTESIAN_POINT('',(30.8209120200314,-5.,0.60012671826689));
#362=CARTESIAN_POINT('',(30.9800864538952,-5.,-4.01593186378528));
#363=CARTESIAN_POINT('',(30.8209120200314,0.,0.60012671826689));
#364=CARTESIAN_POINT('Origin',(34.7389488005138,0.,3.04600511265209));
#365=CARTESIAN_POINT('',(34.7389488005138,-5.,3.04600511265209));
#366=CARTESIAN_POINT('',(30.8209120200314,-5.,0.60012671826689));
#367=CARTESIAN_POINT('',(34.7389488005138,0.,3.04600511265209));
#368=CARTESIAN_POINT('Origin',(38.8161600148601,0.,0.87582492498512));
#369=CARTESIAN_POINT('',(38.8161600148601,-5.,0.87582492498512));
#370=CARTESIAN_POINT('',(34.7389488005138,-5.,3.04600511265209));
#371=CARTESIAN_POINT('',(38.8161600148601,0.,0.87582492498512));
#372=CARTESIAN_POINT('Origin',(38.9753344487239,0.,-3.74023365706705));
#373=CARTESIAN_POINT('',(38.8161600148601,-5.,0.87582492498512));
#374=CARTESIAN_POINT('Origin',(34.8981232343776,-5.,-1.57005346940008));
#375=UNCERTAINTY_MEASURE_WITH_UNIT(LENGTH_MEASURE(0.01),#379,
'DISTANCE_ACCURACY_VALUE',
'Maximum model space distance between geometric entities at asserted c
onnectivities');
#376=UNCERTAINTY_MEASURE_WITH_UNIT(LENGTH_MEASURE(0.01),#379,
'DISTANCE_ACCURACY_VALUE',
'Maximum model space distance between geometric entities at asserted c
onnectivities');
#377=(
GEOMETRIC_REPRESENTATION_CONTEXT(3)
GLOBAL_UNCERTAINTY_ASSIGNED_CONTEXT((#375))
GLOBAL_UNIT_ASSIGNED_CONTEXT((#379,#381,#382))
REPRESENTATION_CONTEXT('','3D')
);
#378=(
GEOMETRIC_REPRESENTATION_CONTEXT(3)
GLOBAL_UNCERTAINTY_ASSIGNED_CONTEXT((#376))
GLOBAL_UNIT_ASSIGNED_CONTEXT((#379,#381,#382))
REPRESENTATION_CONTEXT('','3D')
);
#379=(
LENGTH_UNIT()
NAMED_UNIT(*)
SI_UNIT(.MILLI.,.METRE.)
);
#380=(
LENGTH_UNIT()
NAMED_UNIT(*)
SI_UNIT($,.METRE.)
);
#381=(
NAMED_UNIT(*)
PLANE_ANGLE_UNIT()
SI_UNIT($,.RADIAN.)
);
#382=(
NAMED_UNIT(*)
SI_UNIT($,.STERADIAN.)
SOLID_ANGLE_UNIT()
);
#383=SHAPE_DEFINITION_REPRESENTATION(#384,#385);
#384=PRODUCT_DEFINITION_SHAPE('',$,#387);
#385=SHAPE_REPRESENTATION('',(#235),#377);
#386=PRODUCT_DEFINITION_CONTEXT('part definition',#391,'design');
#387=PRODUCT_DEFINITION('Sharplayers_8596531012183',
'Sharplayers_8596531012183 v1',#388,#386);
#388=PRODUCT_DEFINITION_FORMATION('',$,#393);
#389=PRODUCT_RELATED_PRODUCT_CATEGORY('Sharplayers_8596531012183 v1',
'Sharplayers_8596531012183 v1',(#393));
#390=APPLICATION_PROTOCOL_DEFINITION('international standard',
'automotive_design',2009,#391);
#391=APPLICATION_CONTEXT(
'Core Data for Automotive Mechanical Design Process');
#392=PRODUCT_CONTEXT('part definition',#391,'mechanical');
#393=PRODUCT('Sharplayers_8596531012183','Sharplayers_8596531012183 v1',
$,(#392));
#394=PRESENTATION_STYLE_ASSIGNMENT((#395));
#395=SURFACE_STYLE_USAGE(.BOTH.,#396);
#396=SURFACE_SIDE_STYLE('',(#397));
#397=SURFACE_STYLE_FILL_AREA(#398);
#398=FILL_AREA_STYLE('Paint - Enamel Glossy (White)',(#399));
#399=FILL_AREA_STYLE_COLOUR('Paint - Enamel Glossy (White)',#400);
#400=COLOUR_RGB('Paint - Enamel Glossy (White)',0.964705882352941,0.964705882352941,
0.952941176470588);
ENDSEC;
END-ISO-10303-21;
